Imago - Reset Chords & Tabs

 

Reset Chords & Tabs

Imago Chords & Tabs

Version: 1 Type: Tab

Reset Tab

-------------------------------------------------------------------------------
			     RESET - IMAGO
-------------------------------------------------------------------------------
Tabbed by: Angelo
Email:angelo06@yahoo.com

Dedicate ko to sa mga katropa ko sa Bf homes alabang at bandm8s ko 
Ayus!!

ito nga pala ung intro riff..
[ Tab from: http://www.guitartabs.cc/tabs/i/imago/reset_tab.html ]
Intro at Chorus
e|---------------------------------------------------|
B|---------------------------------------------------|
G|------------4-4-4-4-/--5-5-5-5-/-4-4-4-4-4-4-4-----|
D|------------4-4-4-4----5-5-5-5---4-4-4-4-4-4-4-----|
A|--7-7-7-7---2-2-2-2-/--3-3-3-3-/-2-2-2-2-2-2-2-----|
E|--5-5-5-5------------------------------------------|

Verses
D G F# ( kayo na bhala tnatamad aq eh)

thats all!