Imagine Dragons - Radioactive Chords & Tabs

 

Radioactive Chords & Tabs

Imagine Dragons Chords & Tabs

Version: 3 Type: Chords 0 ratings
1 star 2 stars 3 stars 4 stars 5 stars
comments

Radioactive Chords

   
I looked this up and noticed people need to learn more things instead of just throwing a 
capo on the
neck. This song can obviously be played multiple ways, so here are a few of the shapes 
of the
progressions without a capo and with. I suggest the first way without a capo as it will 
deviate you
from playing the usual chords and this is an enjoyable and easy song to play!

Standard tuning EAGDBE
Key of A

This is standard with no capo. The entire song is played with this progression and
the strumming can easily be figured out


   Bm       D         A         E
---2--------2---------0---------0------------------------------------|
---3--------3---------2---------0------------------------------------|
---4--------2---------2---------1------------------------------------|
---4--------0---------2---------2------------------------------------|
---2--------0---------0---------2------------------------------------|
---x------------------x---------0------------------------------------|

It can also be played with a capo on the 2nd fret if you want to use more familiar chords
[ Tab from: http://www.guitartabs.cc/tabs/i/imagine_dragons/radioactive_crd_ver_3.html ]
   (Bm)    (D)       (A)      (E)
   Am       C         G        D
---0--------0---------1--------2------------------------------------|
---1--------1---------1--------3------------------------------------|
---2--------0---------0--------2------------------------------------|
---2--------2---------0--------0------------------------------------|
---0--------3---------2--------0------------------------------------|
---x--------x---------3---------------------------------------------|


This is the progression for the capo on the 4th fret. This is tougher, but you will get good
practice using some different chord shapes and might make it more interesting for you to play.

  (Bm)      (D)       (A)      (E)
   Gm       Bb        F        C
---3--------1---------1--------0------------------------------------|
---3--------3---------1--------1------------------------------------|
---3--------3---------2--------0------------------------------------|
---5--------3---------3--------2------------------------------------|
---5--------1---------3--------3------------------------------------|
---3--------x---------1--------x------------------------------------|
Comments