Imagine Dragons - Destination Chords & Tabs

 

Destination Chords & Tabs

Imagine Dragons Chords & Tabs

Version: 1 Type: Tab 0 ratings
1 star 2 stars 3 stars 4 stars 5 stars
comments

Destination Tab

   
INTRO

ELECTRIC 1

E|--------------------    --------------------|
B|--------8-----------    ---------8----------|
G|-10-7-10--10-7-10-7-    --10-7-10--10-7-----|
D|-------------------- X2 ---------------10-8-|
A|--------------------    --------------------|
E|--------------------    --------------------|

ELECTRIC 2
CLEAN/ELECTRONIC

E|----------15-------------|
B|-18-15-18----18-15-------|
G|-------------------17-15-| (play with 2nd part of intro ^)
D|-------------------------|
A|-------------------------|
E|-------------------------|

VERSE

ELECTRIC 2
CLEAN

   1  2  3   4
E|--------------|
B|--------------|
G|----8--10--12-|
D|-8--8--10--12-| (single strums)
A|-8--6--8---10-|
E|-6------------|

Order of chords for verse

1-1-2-1-1-2-3-2

ELECTRIC 1
CLEAN

E|----------------  -----------------|
B|----------------  -----------------|
G|-------15151515-  --------15151515-| (listening to the song will help here)
D|-12-12----------  --13-13----------|
A|----------------  -----------------|
E|----------------  -----------------|

PRECHORUS

ELECTRIC 1
         (picking pattern)
E|-10-|  |----x----|
B|-11-|  |--x--x-x-|
G|-10-|  |-x-x--x--|
D|----|  |---------|
A|----|  |---------|
E|----|  |---------|

CHORUS

ELECTRIC 1-2
CLEAN

E|--------------|
B|--------------|
G|----8--10--12-|
D|-8--8--10--12-| (single strum and hold)
A|-8--6--8---10-|
E|-6------------|

POST CHORUS
[ Tab from: http://www.guitartabs.cc/tabs/i/imagine_dragons/destination_tab.html ]
ELECTRIC 1
CLEAN

E|----15-10-|
B|-11-------|
G|----------|
D|----------|
A|----------|
E|----------|

VERSE

ELECTRIC 1
CLEAN

E|----15-10-|
B|-11-------|
G|----------|
D|----------|
A|----------|
E|----------|

ELECTRIC 2
CLEAN

E|-10-15-|
B|-11-16-|
G|-10-15-|
D|-------| (full strums)
A|-------|
E|-------|

PRECHORUS

CHORUS

BRIDGE

ACOUSTIC

E|-------------------|
B|---66//88----------|
G|----------10-777---|
D|-88-------------10-|
A|-------------------|
E|-------------------|

CHORUS

SOLO

ELECTRIC 1
                                  (hammer repeatedly -----------------------|)
E|-//15b-13b-10b-1013//15b-13b-10h11-10h11-10h11-10h11-8h10-8h10-8h10-8h10--|
B|--------------------------------------------------------------------------|
G|--------------------------------------------------------------------------|
D|--------------------------------------------------------------------------|
A|--------------------------------------------------------------------------|
E|--------------------------------------------------------------------------|
             (hammer repeatedly)   (full strums)
-18b-17b-13bh17-13h17-13h17-13h17--18-17-13-|
-----------------------------------18-18-11-|
--------------------------------------------|
--------------------------------------------|
--------------------------------------------|
--------------------------------------------|
Comments