Imagine Dragons - Demons Chords & Tabs

 

Demons Chords & Tabs

Imagine Dragons Chords & Tabs

Version: 4 Type: Tab 0 ratings
1 star 2 stars 3 stars 4 stars 5 stars
comments

Demons Tab

   
Demons by Imagine Dragons Fingerstyle

Capo 1st Fret 
Standard Tuning  
X= slap technique 
intro: D shape
/= slide
Chords: D, B#, A , G whole song
Link to the fingerstyle cover- http://www.youtube.com/watch?v=pdtYAlQfjYM
goodluck!

D  = 000232
B# = 244232
A  = 0022200
G  = 320033
My first tab! with help from a friend "Katka" please if you use this tab make sure u give me credit
This is my arrangement of fingerstyle for this song

 e|--------------------------|-------------------------------|
 B|--------------------------|-------------------------------| X2 play twice 
 g|---2------------2---------|--4-------------------0--0-0---|
 d|-00----4--2-0-0----4-2--0-|0-4-------4-2-0-0-----0--0-0---|
 a|-----00----------00-------|--2--2-2-----------------------|
 e|--------------------------|-----------------------3--3--3-|


prechorus 1
e|-------------------------------|-----------------------------|-----------------------------|
B|-------------------------2/3-2x|-----------------------------|-----------------------------|
G|--2-x-2-2-2-----2-2-x-2-2------|-4-----------0-000-----------|-----------------------------|
d|-0--------0-4-x-2--------------|-44-x-44-4-4x0-0004-0--------|-----------------------------|
A|----------------0----------0---|-2-------2-------------------|-----------------------------|
E|-------------------------------|-------------3---------------|-----------------------------|

[ Tab from: http://www.guitartabs.cc/tabs/i/imagine_dragons/demons_tab_ver_4.html ]
prechorus 2 play after one like reading down
e|-------------------------------|-----------------------------|-----------------------------|
B|-------------------------2/3-2x|-----------------------------|-----------------------------|
G|--2-x-2-2-2-----2-2-x-2-2------|-4---------------------------|-----------------------------|
d|-0--------0-4-x-2--------------|-4-4--44-4-4--0-000--0-0-----|-----------------------------|
A|----------------0---------0----|-2-2--22-2-2--0-000----------|-----------------------------|
E|-------------------------------|--------------3--------------|-----------------------------|





chorus
e|-2-2-2-3/5-----2-2-2/5-------|---2-2-2-2-2-3---333---------|-----------------------------|
B|-3---------3-2---------2-----|-------------3------3--------|-----------------------------|
G|-2-----------2---------------|-4-----------0---------------|-----------------------------|X2
d|-------------2---------------|-4-----------0---------------|-----------------------------|
A|-------------0---------------|-2-------2---2---------------|-----------------------------|
E|-----------------------------|-------------3---------------|-----------------------------|

After chorus just repeat the intro!

ending riff D shape to A 
e|-----------0-----------------|-------------------------------|-----------------------------|
B|---3-3-3-----2-2-2-2/3-------|-------------0--0-0-0-0-2/3----|-----------------------------|
G|-------------2---------------|--4-4-4-4-4--------------------|-----------------------------|
d|-0-----------2---------------|--4--------4-0-----------------|-----------------------------|
A|-----------------------------|--2----------2-----------------|-----------------------------|
E|-----------------------------|-------------3-----------------|-----------------------------|

ending riff just read down

e|-----------0-----------------|-----2-2-2-------3--3-3--3------|-----------------------------|
B|---3-3-3-----2-2-2-2/3-------|----------3--0---3---------3----|-----------------------------|
G|-------------2---------------|--4----------0------------------|-----------------------------|
d|-0-----------2---------------|--4-----------------------------|-----------------------------|
A|-----------------------------|--2----------2---2--------------|-----------------------------|
E|-----------------------------|-------------3---3--------------|-----------------------------|

Go back to the chorus play that twice and you learned the song ;)
Comments