Imagine Dragons - Demons Chords & Tabs

 

Demons Chords & Tabs

Imagine Dragons Chords & Tabs

Version: 1 Type: Bass Tab 0 ratings
1 star 2 stars 3 stars 4 stars 5 stars
comments

Demons Bass Tab

   
Chorus 0:46
G|-----------------------------------------------------------------|
D|-1---1-1-1-----1---------------------------------3---3---3---3---|
A|---------------------------------1---1-1-1---1-----------------1-|
E|-----------------1---1---3-3-3-----------------------------------|
   1 e + a 2 e + a 3 e + a 4 e + a 1 e + a 2 e + a 3 e + a 4 e + a

G|-------------------------------------------------------------------|
D|---------------------1---3h5-6---6---6-6-6---6---8---8---10---10-\-|
A|-3---3-3-3-----3-3-------------------------------------------------|
E|-------------------------------------------------------------------|
   1 e + a 2 e + a 3 e + a 4 e + a 1 e + a 2 e + a 3 e + a 4  e +  a

G|-----------------------------------------------------------------|
D|-1---1-1-1-----1-----------------------------------------3---3---|
A|---------------------------------1---1-1-1---1---1---3-----------|
E|-----------------1---1---3-3-3-----------------------------------|
   1 e + a 2 e + a 3 e + a 4 e + a 1 e + a 2 e + a 3 e + a 4 e + a

G|-------------------------------------------------------------------|
D|---------------------1---3h5-6---6---6---6---6-6-8---8---10---10---|
A|-3---3-3-3---3-3-3-------------------------------------------------|
E|-------------------------------------------------------------------|
   1 e + a 2 e + a 3 e + a 4 e + a 1 e + a 2 e + a 3 e + a 4  e +  a

Break

Chorus 1:50
G|-----------------------------------------------------------------|
D|-1---1-1-1---1-1---------------------------------3---3---3---3---|
A|---------------------------------1---1-1-1---1-----------------1-|
E|-----------------1---1---3-3-3-----------------------------------|
   1 e + a 2 e + a 3 e + a 4 e + a 1 e + a 2 e + a 3 e + a 4 e + a

G|-------------------------------------------------------------------|
D|---------------------1---3h5-6---6---6-6-6---6-6-8---8---10---10-\-|
A|-3---3-3-3---3-3-3-------------------------------------------------|
E|-------------------------------------------------------------------|
   1 e + a 2 e + a 3 e + a 4 e + a 1 e + a 2 e + a 3 e + a 4  e +  a
[ Tab from: http://www.guitartabs.cc/tabs/i/imagine_dragons/demons_btab.html ]
G|-----------------------------------------------------------------|
D|-1---1-1-1---1-1-----------------------------------------3---3---|
A|---------------------------------1---1-1-1---1---1---3---------1-|
E|-----------------1---1---3-3-3-----------------------------------|
   1 e + a 2 e + a 3 e + a 4 e + a 1 e + a 2 e + a 3 e + a 4 e + a

G|-------------------------------------------------------------------|
D|---------------------1---3h5-6---6---6---6---6-6-8---8---10---10---|
A|-3---3-3-3---3-3-3-------------------------------------------------|
E|-------------------------------------------------------------------|
   1 e + a 2 e + a 3 e + a 4 e + a 1 e + a 2 e + a 3 e + a 4  e +  a

Break

Chorus 2:32
G|-----------------------------------------------------------------|
D|-1---1-1-1-----1---------------------------------3---3---3---3---|
A|---------------------------------1---1-1-1---1-----------------1-|
E|-----------------1---1---3-3-3-----------------------------------|
   1 e + a 2 e + a 3 e + a 4 e + a 1 e + a 2 e + a 3 e + a 4 e + a

G|-------------------------------------------------------------------|
D|---------------------1---3h5-6---6---6-6-6---6---8---8---10---10-\-|
A|-3---3-3-3-----3-3-------------------------------------------------|
E|-------------------------------------------------------------------|
   1 e + a 2 e + a 3 e + a 4 e + a 1 e + a 2 e + a 3 e + a 4  e +  a

G|-----------------------------------------------------------------|
D|-1---1-1-1-----1-----------------------------------------3---3---|
A|---------------------------------1---1-1-1---1---1---3-----------|
E|-----------------1---1---3-3-3-----------------------------------|
   1 e + a 2 e + a 3 e + a 4 e + a 1 e + a 2 e + a 3 e + a 4 e + a

G|-------------------------------------------------------------------|
D|---------------------1---3h5-6---6---6---6---6-6-8---8---10---10---|
A|-3---3-3-3---3-3-3-------------------------------------------------|
E|-------------------------------------------------------------------|
   1 e + a 2 e + a 3 e + a 4 e + a 1 e + a 2 e + a 3 e + a 4  e +  a
Tabbed by Dave Vucko
Comments