Imagine Dragons - Cover Up Chords & Tabs

 

Cover Up Chords & Tabs

Imagine Dragons Chords & Tabs

Version: 1 Type: Bass Tab 0 ratings
1 star 2 stars 3 stars 4 stars 5 stars
comments

Cover Up Bass Tab

-----------------------------
 Cover Up by Imagine Dragons
-----------------------------

Not sure about the pre-chorus

Intro x2      0:33
G|---------------------------------------------------------------------------|
D|---------------------------------------------------------------------------|
A|-3-3-3-3-3-3-3-3-3-3-3-3-3-3-3-3-3-3-3-3-3-3-3-3-3-3-3-3-3-3-3-3-----------|
E|---------------------------------------------------------------------------|

Chorus x2
G|---------------------------------------------------------------------------|
D|---------------------------------------------------------------------------|
A|---------------------------------3-3-3-3-3-3-3-3-3-3-3-3-3-3-3-3-----------|
E|-5-5-5-5-5-5-5-5-1-1-1-1-1-1-1-1-------------------------------------------|

Verse x2
G|---------------------------------------------------------------------------|
D|---------------------------------------------------------------------------|
A|-3-3-5-5--------------3-3-5-5----------------------------------------------|
E|---------5-5------------------5-5----3-5-3---------------------------------|

Verse part2 x2
G|---------------------------------------------------------------------------|
D|---------------------------------------------------------------------------|
A|-3-3-5-5----/12-12-12-12-12-12-12-3-3-5-5----/12-12-12-12-12-12-12---------|
E|---------5-5------------------------------5-5------------------------------|

Pre-Chorus
G|---------------------------------------------------------------------------|
D|---------------------------------------------------------------------------|
A|-------8-8-3-5--------8-8-3-5--------8-8-3-5-------8-8-3-5-----------------|
E|-1-1-0----------1-1-0----------1-1-0---------1-1-0-------------------------|

Chorus x4
G|---------------------------------------------------------------------------|
D|---------------------------------------------------------------------------|
A|---------------------------------3-3-3-3-3-3-3-3-3-3-3-3-3-3-3-3-----------|
E|-5-5-5-5-5-5-5-5-1-1-1-1-1-1-1-1-------------------------------------------|
[ Tab from: http://www.guitartabs.cc/tabs/i/imagine_dragons/cover_up_btab.html ]
Verse x2
G|---------------------------------------------------------------------------|
D|---------------------------------------------------------------------------|
A|-3-3-5-5--------------3-3-5-5----------------------------------------------|
E|---------5-5----3-5-3--------5-5-------------------------------------------|

Verse part2 x2
G|---------------------------------------------------------------------------|
D|---------------------------------------------------------------------------|
A|-3-3-5-5----/12-12-12-12-12-12-12-3-3-5-5----/12-12-12-12-12-12-12---------|
E|---------5-5------------------------------5-5------------------------------|

Pre-Chorus
G|---------------------------------------------------------------------------|
D|---------------------------------------------------------------------------|
A|-------8-8-3-5--------8-8-3-5--------8-8-3-5-------8-8-3-5-----------------|
E|-1-1-0----------1-1-0----------1-1-0---------1-1-0-------------------------|

Chorus x4
G|---------------------------------------------------------------------------|
D|---------------------------------------------------------------------------|
A|---------------------------------3-3-3-3-3-3-3-3-3-3-3-3-3-3-3-3-----------|
E|-5-5-5-5-5-5-5-5-1-1-1-1-1-1-1-1-------------------------------------------|

Bridge x3
G|---------------------------5-4-0---------------------------5-4-0-----------|
D|-5-5-5-5-5-5-5-5-5-5-5-5-5-------3-3-3-3-3-3-3-3-3-3-3-3-3-----------------|
A|---------------------------------------------------------------------------|
E|---------------------------------------------------------------------------|


Bridge part2
G|---------------------------5-4-0----------------/10-10-10-10-10-10-10-10---|
D|-5-5-5-5-5-5-5-5-5-5-5-5-5-------3-3-3-3-3-3-3-3---------------------------|
A|---------------------------------------------------------------------------|
E|---------------------------------------------------------------------------|

Chorus x4
G|---------------------------------------------------------------------------|
D|---------------------------------------------------------------------------|
A|---------------------------------3-3-3-3-3-3-3-3-3-3-3-3-3-3-3-3~----------|
E|-5-5-5-5-5-5-5-5-1-1-1-1-1-1-1-1-------------------------------------------|
Comments