Ima Robot - Dynomite Chords & Tabs

 

Dynomite Chords & Tabs

Ima Robot Chords & Tabs

Version: 1 Type: Bass Tab 0 ratings
1 star 2 stars 3 stars 4 stars 5 stars
comments

Dynomite Bass Tab

Ima Robot - Dynomite
Album: Ima Robot

Intro/Verse
G------------------------------------------------
D------------------------------------------------
A-4s11-11-11--4s11-11-11--4s11-11-11--4s11-11-11-
E------------------------------------------------

G------------------------------------------------
D------------------------------------------------
A-11s4-4-4--11s4-4-4--4s11-11-11--4s11-11-11----
"No, I Wanna Wait For Someone Like You, To Make My Life So Dynomite!"
G-------------------------------------------------------------------
D-------------------------------------------------------------------
A-6----6----6----6----4----4----4----4--------------4--4--4--4--4--4
E--------------------------------------2---2---2---2----------------
[ Tab from: http://www.guitartabs.cc/tabs/i/ima_robot/dynomite_btab.html ]
Chorus 
G-----------------------------------------------------------------------
D-----------------------------------------------------------------------
A-11-11-11-11-----------7-7-7-7--------11-11-11-11---------7-7-7-7------
E--------------7-7-7-7----------9-9-9-9------------7-7-7-7-------9-9-9-9

G-----------------------------------------------
D-----------------------------------------------
A11-11-11-11--------7-7-7-7-7-7-7-7-6-6-6-6-9-10
E------------7-7-7-7----------------------------

End Chorus
G---------------------------------------------------------
D---------------------------------------------------------
A-11-11-11-11-11---------4-4-4-4-4s7-7-7-7-7s9-9-9-9-9-10-
E----------------7-7-7-7-7--------------------------------

Bass Tab #2 For Me, Thanks For Viewin, Not Perfect?
Make Another One And Prove Me Wrong, Best For Everyone, Love You Annie
Comments