Ill Nino - What Comes Around Chords & Tabs

 

What Comes Around Chords & Tabs

Ill Nino Chords & Tabs

Version: 3 Type: Bass Tab 0 ratings
1 star 2 stars 3 stars 4 stars 5 stars
comments

What Comes Around Bass Tab

   
Artist - Ill Nino
Title  - What Comes Around
Tab    - Volt3r (Volt3r@mail.ru) ICQ = 228639154

4 Strings bass
Tuning - CGCF
Tempo - 112

Intro
|---------------||---------------| 2x
|---------------||---------------|
|--6-5-5-8-6-6--||--6-5-5-5-3-3--|
|---------------||---------------|
   e e.e.e e.e.     e e.e.e e.e.

Pre-verse 
|---------------||---------------| 2x
|------0-3------||---------------|
|----------6-6--||--------3-3-3--|
|--1-0----------||--1-0-0--------|
   e e.e.e.e.e      e e.e.e.e.e

Verse
|-----||----------|| 4x
|-----||--8-10----||
|-----||-------8--||
|--0--||----------||
   w      q.q. q
|-----------------------------------|
|-----------------------------------|
|-----------------------------------|__
|--0-0-0-0-0-0-0-0-0-0-0-0-0-0-0-0--|  |
   s s s s s s s s s s s s s s s s      3x
|-----------------------------------|__|
|--------------------------3-3-3-3--|
|--1-1-1-1-1-1-3-3-3-3--------------|
|----------------------3-3----------|
   s s s s s s s s s s s s s s s s
|-----------------------------------||--10--|
|-----------------------------------||--8---|
|-----------------------------------||------|
|--0-0-0-0-0-0-0-0-0-0-0-0-0-0-0-0--||------|
   s s s s s s s s s s s s s s s s      w

Chorus
|-----------------------||--10---10---10----| 4x
|-----------------------||--8--8----8----8--|
|-----------------------||------------------|
|--5-5-5-5-5-5-5-5-5-5--||------------------|
   s e s e s e s e e e      e. e.e. e.e  e

Verse 2
|---------------||---------------| 2x
|------0-3------||---------------|
|----------6-6--||--------3-3-3--|
|--1-0----------||--1-0-0--------|
   e e.e.e.e.e      e e.e.e.e.e
|-----||----------|| 4x
|-----||--8-10----||
|-----||-------8--||
|--0--||----------||
   w      q.q. q
|-----------------------------------|
|-----------------------------------|
|-----------------------------------|__
|--0-0-0-0-0-0-0-0-0-0-0-0-0-0-0-0--|  |
   s s s s s s s s s s s s s s s s      3x
|-----------------------------------|__|
|--------------------------3-3-3-3--|
|--1-1-1-1-1-1-3-3-3-3--------------|
|----------------------3-3----------|
   s s s s s s s s s s s s s s s s
|-----------------------------------||--10--|
|-----------------------------------||--8---|
|-----------------------------------||------|
|--0-0-0-0-0-0-0-0-0-0-0-0-0-0-0-0--||------|
   s s s s s s s s s s s s s s s s      w
[ Tab from: http://www.guitartabs.cc/tabs/i/ill_nino/what_comes_around_btab_ver_3.html ]
Chorus 2
|-----------------------||--10---10---10----| 8x
|-----------------------||--8--8----8----8--|
|-----------------------||------------------|
|--5-5-5-5-5-5-5-5-5-5--||------------------|
   s e s e s e s e e e      e. e.e. e.e  e

Acoustic bridge
   ~                ~
|-----||--------||-----||--------|
|-----||--------||-----||--------|
|--5--||--HOLD--||--5--||--HOLD--|
|-----||--------||--0--||--------|
   w      w         w      w
   ~                ~
|-----||--------||-----||--------|
|-----||--------||-----||--------|
|--5--||--HOLD--||--5--||--HOLD--|
|--0--||--------||--0--||--------|
   w      w         w      w
|------5-----5--||------5-----7--| 3x
|----3-----3----||----3-----3----|
|--5-----5------||--5-----5------|
|---------------||---------------|
   e.e.e e.e.e      e.e.e e.e.e
|------5-----5--||------5----| |--------|
|----3-----3----||----3------|6|--------|
|--5-----5------||--5-----5--|4|--HOLD--|
|---------------||--------0--| |--HOLD--|
   e.e.e e.e.e      e.e.e h       w.

Verse + Ending
|--10---10---10----||-------------------------|
|--8--8----8----8--||-------------------------|
|------------------||-------------------------|____
|------------------||--5-5-5-5-5-5-5-5-5-5-5--|    |
   e. e.e. e.e  e      s e s e s e s e e s s        2x
|--10---10---10---10--||-----------------------|___|
|--8--8----8----8-----||-----------------------|
|---------------------||-----------------------|
|---------------------||--5-5-5-5-5-5-5-5-5-5--|
   e. e.e. e.e  s s       s e s e s e s e e e
|--------10--||-------------------------|
|--------8---||-------------------------|
|------------||-------------------------|
|--8-8-8-----||--5-5-5-5-5-5-5-5-5-5-5--|
   e.e.e q       s e s e s e s e e s s
|--------10--||-----------------------|
|--------8---||-----------------------|
|------------||-----------------------|
|--8-8-8-----||--5-5-5-5-5-5-5-5-5-5--|
   e.e.e q       s e s e s e s e e e
|--10---10---10----||-----------------------|
|--8--8----8----8--||-----------------------|
|------------------||-----------------------|
|------------------||--5-5-5-5-5-5-5-5-5-5--|    
   e. e.e. e.e  e      s e s e s e s s e e         
|--10---10---10------||-----------------------|
|--8--8----8----8----||-----------------------|
|--------------------||-----------------------|
|-----------------0--||--5-5-5-5-5-5-5-5-5-5--|
   e. e.e. e.e  s s      s e s e s e s e e e
|-------------------------|
|-------------------------|
|-------------------------|
|--1-0-0-0-0-0-3-1-1-1-1--|
   s s s e e s s s s e e.

Mail me or contact with me by ICQ (228639154)
Comments