Ill Nino - This Times For Real Chords & Tabs

 

This Times For Real Chords & Tabs

Ill Nino Chords & Tabs

Version: 1 Type: Tab 1 rating
1 star 2 stars 3 stars 4 stars 5 stars
comments

This Times For Real Tab

   
Artist - Ill Nino
Song - This Time's For Real
Album - confession

Tabbed by Mike Kopp

Tuning - C G C F A D
*=tremelo pick

Intro/Verse
                        (fill with this part before chorus)  
-----------------------|--------------------------------------------------------
-----------------------|--------------------------------------------------------
-----------------------|--------------------------------------------------------
--7-7-7-5-5-3-3-3h5p3--|-5-8----------------------------------------------------
--7-7-7-3-3-3-3-3h5p3--|-5-8----------------------------------------------------
--7-7-7-----3-3-3h5p3--|-5-8----------------------------------------------------

Riff
                                                (fill with this part)
-19-19-19-0-0-0-20-20-20-0-0-0-20-20-20-0-0-0--|-20-19--------------------------
-----------------------------------------------|--------------------------------
-----------------------------------------------|-------19-----------------------
-----------------------------------------------|--------------------------------
-----------------------------------------------|--------------------------------
-----------------------------------------------|--------------------------------
-----------------------------------------------|--------------------------------

Chorus

--------------------------------------------------------------------------------
--------------------------------------------------------------------------------
--------------------------------------------------------------------------------
--12-10-5-8---------------------------------------------------------------------
--12-10-5-8---------------------------------------------------------------------
--12-10-5-8---------------------------------------------------------------------

Bridge/Solo
[ Tab from: http://www.guitartabs.cc/tabs/i/ill_nino/this_times_for_real_tab.html ]
-----5h7-7h8p7p5-----5h7-7h8-8p7-7p5--------------------------------------------  (2x)
-5-5-------------5-5------------------------------------------------------------
--------------------------------------------------------------------------------
--------------------------------------------------------------------------------
--------------------------------------------------------------------------------
--------------------------------------------------------------------------------

-8-8-8-8-5-5--7h8p7---5--7h8p7---5-8*--7h8p7---5--7h8p7---5-8h10p8-7h8p7h8p7p5--
--------------------8----------8-------------8----------8-----------------------
--------------------------------------------------------------------------------
--------------------------------------------------------------------------------
--------------------------------------------------------------------------------
--------------------------------------------------------------------------------

--------------------------------------------------------------------------------
-13-13-13-13-12-12-13--13-13-13-13-12-13-10-------------------------------------
-14-14-14-14-12-12-14--14-14-14-14-12-14-10-------------------------------------
--------------------------------------------------------------------------------
--------------------------------------------------------------------------------
--------------------------------------------------------------------------------

--------------------------------------------------------------------------------
------------------------------------13-15-17------------------------------------
------------------------------------14-16-17------------------------------------
----12h14p12----12--12h14p12----12----------------------------------------------
-15----------15--------------15-------------------------------------------------
--------------------------------------------------------------------------------

Thats it...Not too hard. Im not to sure about the solo bridge thing but it sounds pretty descent.
For questions email me at mjkopp@gaggle.net
Comments