Ill Nino - This Is War Chords & Tabs

 

This Is War Chords & Tabs

Ill Nino Chords & Tabs

Version: 2 Type: Tab

This Is War Tab

   
Ill Niņo - What You Deserve
Source: www.illninoworld.com
Tabbed by: Yoni Drijfhout (oct 21, 2005)
Questions/corrections: webmaster[at]illninoworld[dot]com

TUNED: drop C   (C,G,C,F,A,D)

* = Pinch Harmonic
p = Pull Off
h = Hammer On
. = Palm Mute


Intro: Repeat X2

D----------------------------------|
A----------------------------------|
F----------------------------------|
C-0-0-000-0-------0-0-0-00---------|
G-0-0-000-0-------0-0-0-00---------|
C-0-0-000-0-------0-0-0-00---------|
  . . ... .       . . . ..


Riff: Repeat X4

D----------------------------------|
A----------------------------------|
D----------------------------------|
C----------------------------------|
G-----5--6----5-------5--6----5-*6-|
C-0456-06-0456-06-0456-06-0456-0---|
  .... .. .... .  .... .. .... .


Interlude x4

D-------------|
A-------------|
F-------------|
C-0-1-0-0-1-0-|
G-0-1-0-0-1-0-|
C-0-1-0-0-1-0-|


Verse x4
         part 1             part 2
D-----------------|-----------------|
A-----------------|-----------------|
F-----------------|-----------------|
C-0-1-0-0-1-0-----|-0-1-0-0---------|
G-0-1-0-0-1-0-----|-0-1-0-0-5-------|
C-0-1-0-0-1-0-----|-0-1-0-0--06~----|
(guitar 1: part 1 x16)
(guitar 2: part 1 x3, then part 2, play this x4)


Chorus x2
                               guitar 1 (x2)     guitar 2 (x2)
D---------------------------|-----------------|-----------------|
A---------------------------|-----------------|-----------------|
F---------------------------|-----------------|---7-5-8-7-5-----|
C------777--77------333-33--|-0000-00-00-0000-|---x-x-x-x-x-----|
G---------------------------|-0000-00-00-0000-|---5-3-6-5-3-----|
C-77777---77--733333---33-3-|-0000-00-00-0000-|-----------------|
  .........................   .... .. .. ....

Pre-riff
                               guitar 1 (x2)     guitar 2 (x2)
D-----------------|-----------------|
A-----------------|-----------------|
F-----------------|---7-5-8-7-5-----|
C-0000-00-00-0000-|---x-x-x-x-x-----|
G-0000-00-00-0000-|---5-3-6-5-3-----|
C-0000-00-00-0000-|-----------------|
  .... .. .. ....

Riff x4
Interlude x2
Verse x4
Chorus x2
Riff x2


Pre-bridge

D---------|
A---------|
F---------|
C-0-------|
G-0-------|
C-0-------|

[ Tab from: http://www.guitartabs.cc/tabs/i/ill_nino/this_is_war_tab_ver_2.html ]
Bridge (guitar 1, volume knob 25% open)

D-------10-10-12-12-------10-10-------------|
A-10-10-------------13-13-------10-10-13-13-|
F-------------------------------------------|
C-------------------------------------------|
G-------------------------------------------|
C-------------------------------------------|

D----------------------------|
A-8-8-6-8-6~--8p10p6p8-8-8-6-|
F----------------------------|
C----------------------------|
G----------------------------|
C----------------------------|

D-----5-----------------------------------------------|
A-6-8---6---6p5p3h5ph3-6p5p3h5p3-6p5p3h5p3-3-5-6-8-8~-|
F---------7-------------------------------------------|
C-----------------------------------------------------|
G-----------------------------------------------------|
C-----------------------------------------------------|

D---------10-12-13-12-10-12~-----10~--10-12-13p12p10-12-|
A-8-10-13------------------------13^~-------------------|
F-------------------------------------------------------|
C-------------------------------------------------------|
G-------------------------------------------------------|
C-------------------------------------------------------|

D-13h15-13-12----12------------------------------------|
A-------------15----15-13-15p13-12p10p8h10~--10p8p6h8~-|
F------------------------------------------------------|
C------------------------------------------------------|
G------------------------------------------------------|
C------------------------------------------------------|

D-------10-10-12-12-------12-12-13-13~---13-13-12-12-10-10h12-|
A-10-10-------------10-10-------------------------------------|
F-------------------------------------------------------------|
C-------------------------------------------------------------|
G-------------------------------------------------------------|
C-------------------------------------------------------------|

D----------------|
A-10-10-8p7p6-8~-|
F----------------|
C----------------|
G----------------|
C----------------|


Guitar 2 plays the following chords during the solo (acoustic):

D-5---5---1---1-0-|
A-3---3---1---1-1-|
F-2---5---3---3-2-|
C-0---5---3---3-2-|
G-----------------|
C-----------------|


Fading in: Riff x6

End:

D---------|
A---------|
F---------|
C-0-0-----|
G-0-0-----|
C-0-0-----|


For other Ill Niņo tabs & more visit http://www.illninoworld.com