Ill Nino - Te Amo I Hate You Chords & Tabs

 

Te Amo I Hate You Chords & Tabs

Ill Nino Chords & Tabs

Version: 1 Type: Tab 0 ratings
1 star 2 stars 3 stars 4 stars 5 stars
comments

Te Amo I Hate You Tab

ILL NINO- TE AMO...I HATE YOU
ALBUM- CONFESSIONS
TABBED BY KEVIN MACCARONE

P= PULL OFF
S= SLIDE


LISTEN TO CD FOR RHYTHM.
I PUT ALL THE PARTS, JUST LISTEN TO SONG


INTRO AND VERSE
GUITAR 1

D---------------------------------------------------------------------|
A---------------------------------------------------------------------|
F---------------------------------------------------------------------|
C--10-10-10-10-10-10-10-11-11-11--------------------------------------|
G---------------------------------------------------------------------|
C---------------------------------------------------------------------|


GUITAR 2  (PALM MUTED)

D---------------------------------------------------------------------|
A---------------------------------------------------------------------|
F---------------------------------------------------------------------|
C---------------------------------------------------------------------|
G----0-0---------------------0-0-0-----------0------------------------|
C----0-0-------------THEN----0-0-0--LET RING 0------------------------|


PRE CHORUS

D---------------------------------------------------------------------|
A---------------------------------------------------------------------|
F---------------------------------------------------------------------|
C-------------------------11113333------------------------------------|
G---0-1-0-1-0-0-1-0-1-0-----------------------------------------------|
C---0-1-0-1-0-0-1-0-1-0-----------------------------------------------|


CHORUS

D---------------------------------------------------------------------|
A---------------------------------------------------------------------|
F---------------------------------------------------------------------|
C---------------------------------------------------------------------|
G---0-0-3P0-3S55555555------------------------------------------------|
C---0-0-3P0-3S55555555------------------------------------------------|

BRIDGE
[ Tab from: http://www.guitartabs.cc/tabs/i/ill_nino/te_amo_i_hate_you_tab.html ]
D---------------------------------------------------------------------|
A---------------------------------------------------------------------|
F---------------------------------------------------------------------|
C---------------------------------------------------------------------|
G---0------------------0----------------------------------------------|
C---0------------------0----------------------------------------------|


D---------------------------------------------------------------------|
A---------------------------------------------------------------------|
F---------------------------------------------------------------------|
C---------------------------------------------------------------------|
G---------------------------------------------------------------------|
C--0-13-0-13-0--------------------------------------------------------|

TO

D----------------------------------------------------------------------|
A----------------------------------------------------------------------|
F----------------------------------------------------------------------|
C----------------------------------------------------------------------|
G--0-1-0-1-0-0-1-0-----------------------------------------------------|
C--0-1-0-1-0-0-1-0-----------------------------------------------------|


ENDING

GUITAR 1    PALM MUTED

D----------------------------------------------------------------------------|
A----------------------------------------------------------------------------|
F----------------------------------------------------------------------------|
C----------------------------------------------------------------------------|
G---0-0-0-0-0-0--------------------------------------------------------------|
C---0-0-0-0-0-0--------------------------------------------------------------|

GUITAR 2   TREMELO PICK
D---------------------------------------------------------------------|
A------12---8---12---15-----------------------------------------------|
F---------------------------------------------------------------------|
C---------------------------------------------------------------------|
G---------------------------------------------------------------------|
C---------------------------------------------------------------------|
Comments