Ill Nino - Rumba Chords & Tabs

 

Rumba Chords & Tabs

Ill Nino Chords & Tabs

Version: 2 Type: Tab 0 ratings
1 star 2 stars 3 stars 4 stars 5 stars
comments

Rumba Tab

Hi, here's the tab for Ill Nino's song "Rumba", it's pretty complete
Tune your guitar to Drop C ( low to high: C G C F A d )

D---------------------------------
A---------------------------------
F---------------------------------
C--2-2-0-2-2-0-2-2-0--5-5-3-5-----
G--2-2-0-2-2-0-2-2-0--5-5-3-5-----
C--2-2-0-2-2-0-2-2-0--5-5-3-5-----
Main riff / Chorus
[ Tab from: http://www.guitartabs.cc/tabs/i/ill_nino/rumba_tab_ver_2.html ]
D---------------------------------
A--5-5-3-5-5-3-5-5-3--6-6-4-6-----
F---------------------------------
C---------------------------------
G---------------------------------
C---------------------------------
Chorus ( lead guitar played with wah )

D-----------------------
A-----------------------
F-----------------------
C--2~--7-3-2~-----------
G--2~--7-3-2~-----------
C--2~--7-3-2~----------- Verse

Solo ( note: I haven't given the rhythm, just the chords, but it's easy
enough to follow )
D------------------------
A------------------------
F--9--11--12--14---------
C--x--xx--xx--xx---------
G--7--9---10--12---------
C------------------------

End:
D---------
A---------
F---------
C--2~-----
G--2~-----
C--2~-----
Comments