Ill Nino - Revolution Revolucion Chords & Tabs

 

Revolution Revolucion Chords & Tabs

Ill Nino Chords & Tabs

Version: 1 Type: Bass Tab 0 ratings
1 star 2 stars 3 stars 4 stars 5 stars
comments

Revolution Revolucion Bass Tab

Band- Ill Nino
Song- Revolution Revolucion

Intro-
F---------------------------------------------|
C---------------------------------------------|
G---------------------------------------------|
C|--3-2----3-33332---33332----3-33332---------|


Verse-
F------------------|
C------------------|
G------------------|
C|---3-2-0-2-02----|

[ Tab from: http://www.guitartabs.cc/tabs/i/ill_nino/revolution_revolucion_btab.html ]
Bridge-
F---------------------------------------------|
C---------------------------------------------|
G---------------------------------------------|
C|--3-2--0-3-33332-0-33332--0-3-33332---------|


Chorus-
F---------------------------------------|
C---------------------------------------|
G---------------------------------------|
C|-7-77-5-5-5-5-5--2-2-2-3-3-3-3-3-7-7-7-5-5-5-5-5---22-2-|
Comments