Ill Nino - Predisposed Chords & Tabs

 

Predisposed Chords & Tabs

Ill Nino Chords & Tabs

Version: 3 Type: Bass Tab 0 ratings
1 star 2 stars 3 stars 4 stars 5 stars
comments

Predisposed Bass Tab

~~~~~~~~~~~~~~~~~~~~~~~ill nino~~~~~~~~~~~~~~~~~~~~~~

~~~~~~~~~~~~~~~~~~~~~predisposed~~~~~~~~~~~~~~~~~~~~~

ILL NINO
zack anderson
gb_packers152004@hotmail.com

intro
G|----------------------|
D|----------------------| x8
A|---4-2------4-2-------|
E|--------4-0-----4-0---|

verse1: part 1
G|--------------------------------|
D|--------------------------------| x4
A|--------------------------------|
E|---4-4-4-4-6-4--2-4-4-4-7-3-----|

verse1: part2
G|--------------------------------|
D|--------------------------------| x4
A|--------------------------------|
E|---5-5-5-55555555555-5-5-3-2----|

chorus:           x3
G|------------------------------------------------------------------|
D|------------------------------------------------------------------|       
A|------------------------8-8-8-8-----------------------------------|
E|7-7-7-7-7-7-7-7-7-7-7-7---------4-4-4-4-4-4-4-4-4-4-4-4-4-4-4-4-4-|
continued...
G|--------------------------------------|
D|--------------------------------------| x1
A|--------------------------------8-8---|
E|-7-7-7-7-7-7-7-7-7-7-7-7------------4-|
[ Tab from: http://www.guitartabs.cc/tabs/i/ill_nino/predisposed_btab_ver_3.html ]
verse2: part 1
G|--------------------------------|
D|--------------------------------| x4
A|--------------------------------|
E|---4-4-4-4-6-4--2-4-4-4-7-3-----|

verse2: part2
G|--------------------------------|
D|--------------------------------| x4
A|--------------------------------|
E|---5-5-5-55555555555-5-5-3-2----|

chorus:           x3
G|------------------------------------------------------------------|
D|------------------------------------------------------------------|       
A|------------------------8-8-8-8-----------------------------------|
E|7-7-7-7-7-7-7-7-7-7-7-7---------4-4-4-4-4-4-4-4-4-4-4-4-4-4-4-4-4-|
continued...
G|--------------------------------------|
D|--------------------------------------| x1
A|--------------------------------8-8---|
E|-7-7-7-7-7-7-7-7-7-7-7-7------------4-|

bridge:
G|-------------------|
D|-------------------| x3
A|-------------------|
E|---4~------4--2~---|
continued...
G|-------------------------------------------------|
D|-------------------------------------------------|
A|-------------------------------------------------|
E|---2~----2-2-2-2-2-2-2-2-0-0-0-0-0-0-0-0---------|
Comments