Ill Nino - Nothings Clear Chords & Tabs

 

Nothings Clear Chords & Tabs

Ill Nino Chords & Tabs

Version: 5 Type: Tab 0 ratings
1 star 2 stars 3 stars 4 stars 5 stars
comments

Nothings Clear Tab

   
Ill Nino - Nothing'a Clear - Revolution Revolucion

Tabbed by Elvisz (elvisz84@yahoo.com)
Tuning : 6 String Dropped C {Tuned Low to High (C G C F a d)}

(this is the demo version)

Intro:
|-------------------------|
|-666--777--6/7--777-66/7-|
|-777--888--7/8--888-77/8-|	(Acoustic guitar)
|-777--888--777--888-77/8-|
|-555--666--555--666-55/6-|
|-------------------------|
  ^                          ^play that note spanish style

|---------------------|
|---------------------|
|-777/888\777/888\7/8-|	(Guitar1 with wah)
|-xxxxxxxxxxxxxxxxxxx-|
|-555/666\555/666\5/6-|
|---------------------|

|-----------------------------|
|-----------------------------|
|-----------------------------|	(Guitar2)
|-6-00-6-00-6-5---0-6-0-6-6-5-|
|-6-00-6-00-6-5---0-6-0-6-6-5-|
|-6-00-6-00-6-5---0-6-0-6-6-5-|

Verse:
|---------------------|
|---------------------|
|-777/888\777/888\7/8-|	(Guitar1 with wah)
|-xxxxxxxxxxxxxxxxxxx-| (Guitar2 with wah and don't know the other effect)
|-555/666\555/666\5/6-|
|---------------------|

|-----------------------------|
|-----------------------------|
|-----------------------------|
|-6-00-6-00-6-5---0-6-0-6-6-5-|
|-6-00-6-00-6-5---0-6-0-6-6-5-|
|-6-00-6-00-6-5---0-6-0-6-6-5-|

Chorus:
|----------------------|
|----------------------|
|----------------------|
|-7777773~~~8888880~~~-|
|-7777773~~~8888880~~~-|
|-7777773~~~8888880~~~-|

Verse:
|---------------------|
|---------------------|
|-777/888\777/888\7/8-|	(Guitar1 with wah)
|-xxxxxxxxxxxxxxxxxxx-| (Guitar2 with wah and don't know the other effect)
|-555/666\555/666\5/6-|
|---------------------|

|-----------------------------|
|-----------------------------|
|-----------------------------|
|-6-00-6-00-6-5---0-6-0-6-6-5-|
|-6-00-6-00-6-5---0-6-0-6-6-5-|
|-6-00-6-00-6-5---0-6-0-6-6-5-|

Chorus:
|----------------------|
|----------------------|
|----------------------|
|-7777773~~~8888880~~~-|
|-7777773~~~8888880~~~-|
|-7777773~~~8888880~~~-|
[ Tab from: http://www.guitartabs.cc/tabs/i/ill_nino/nothings_clear_tab_ver_5.html ]
Bridge:
|------------------------------|                           \
|------------------------------|                            |
|------------------------------|                            |
|-7~~~~8~~5~~8~~7~~~~3~~~8~~~~-|                            | 
|-7~~~~8~~5~~8~~7~~~~3~~~8~~~~-|                            |
|-7~~~~8~~5~~8~~7~~~~3~~~8~~~~-|                            |
                                                             \
|--------------------------------------------------------|    } (Guitar1)
|--------------------------------------------------------|   /
|-999999991010101077771010101099999999555555101010101010-|  |
|-77777777 8 8 8 85555 8 8 8 877777777333333 8 8 8 8 8 8-|  |
|-77777777 8 8 8 85555 8 8 8 877777777333333 8 8 8 8 8 8-|  |
|-77777777 8 8 8 85555 8 8 8 877777777333333 8 8 8 8 8 8-|  /

(Guitar2)
|-------------------------------------------|
|-------------------------------------------|
|-10-999----9109~~--10-9----9--10//12\10-99-|
|--------12--------------12-----------------|
|-------------------------------------------|
|-------------------------------------------|

|------------------------------------------------------------|
|------------------------------------------------------------|
|-10-999----9109~~------10(12)---1013121012------------------|
|--------12----------912------912----------12109101210h12p10-|
|------------------------------------------------------------|
|------------------------------------------------------------|

Verse:
|---------------------|
|---------------------|
|-777/888\777/888\7/8-|	(Guitar1 with wah)
|-xxxxxxxxxxxxxxxxxxx-| (Guitar2 with wah and don't know the other effect)
|-555/666\555/666\5/6-|
|---------------------|

|-----------------------------|
|-----------------------------|
|-----------------------------|
|-6-00-6-00-6-5---0-6-0-6-6-5-|
|-6-00-6-00-6-5---0-6-0-6-6-5-|
|-6-00-6-00-6-5---0-6-0-6-6-5-|

Chorus:
|----------------------|
|----------------------|
|----------------------|
|-7777773~~~8888880~~~-|
|-7777773~~~8888880~~~-|
|-7777773~~~8888880~~~-|

Outro:
|---------------------|
|---------------------|
|-777/888\777/888\7/8-|
|-xxxxxxxxxxxxxxxxxxx-| (Guitar2 with wah and don't know the other effect)
|-555/666\555/666\5/6-|
|---------------------|
Comments