Ill Nino - Nothings Clear Chords & Tabs

 

Nothings Clear Chords & Tabs

Ill Nino Chords & Tabs

Version: 4 Type: Tab 0 ratings
1 star 2 stars 3 stars 4 stars 5 stars
comments

Nothings Clear Tab

Ill Nino - Nothing's Clear

x = mute
. = palm mute
Intro (played in verse aswell)
D------------------------------|
A------------------------------|
F------------------------------|
C--6-0-6-0-6-5--0-6-0-6-0-6-5--|
G--6-0-6-0-6-5--0-6-0-6-0-6-5--|
C--6-0-6-0-6-5--0-6-0-6-0-6-5--|
Verse w/ wah
-----------------------------------|
-----------------------------------|
--7-7-7--8-8--7-7-7--8-8--7-7-8-8--|
--x-x-x--x-x--x-x-x--x-x--x-x-x-x--|
--5-5-5--6-6--5-5-5--6-6--5-5-6-6--|
-----------------------------------|
Chorus
--------------------------------------------------|
--------------------------------------------------|
--------------------------------------------------|
--7-7-7-7-7-7--3-3-3-3-3--8-8-8-8-8-8--0-0-0-0-0--|
--7-7-7-7-7-7--3-3-3-3-3--8-8-8-8-8-8--0-0-0-0-0--|
--7-7-7-7-7-7--3-3-3-3-3--8-8-8-8-8-8--0-0-0-0-0--|
Solo
-------------------------------------------|
-------------------------------------------|
--10p9-9-9-9-9---------10-12-10-9-10-9-9---|
-----------------12-14---------------------|
-------------------------------------------|
-------------------------------------------|
[ Tab from: http://www.guitartabs.cc/tabs/i/ill_nino/nothings_clear_tab_ver_4.html ]
-------------------------------------------|
-------------------------------------------|
--10p9-9-9----9-9-------10-12-14-12-10-9-9-|
-----------12-----12-14--------------------|
-------------------------------------------|
-------------------------------------------|

-------------------------------------------|
-------------------------------------------|
--10p9-9-9----9-9--10p9----9-10-12-10-9-9--|
-----------12-----------12-----------------|
-------------------------------------------|
-------------------------------------------|
After Solo
------------------------------------------------------------------|
------------------------------------------------------------------|
--9-9-9-9-9-9-9-9-9-9-9-9-10-10-10-10-10-10--7-7-7-7-10-10-10-10--|
--x-x-x-x-x-x-x-x-x-x-x-x--x--x--x--x--x--x--x-x-x-x--x--x--x--x--|
--7-7-7-7-7-7-7-7-7-7-7-7--8--8--8--8--8--8--5-5-5-5--8--8--8--8--|
------------------------------------------------------------------|

--------------------------------------------------------------------|
--------------------------------------------------------------------|
--9-9-9-9-9-9-9-9-9-9-9-9--5-5-5-5-5-5-5-5-10-10-10-10-10-10-10-10--|
--x-x-x-x-x-x-x-x-x-x-x-x--x-x-x-x-x-x-x-x--x--x--x--x--x--x--x--x--|
--7-7-7-7-7-7-7-7-7-7-7-7--3-3-3-3-3-3-3-3--8--8--8--8--8--8--8--8--|
--------------------------------------------------------------------|
Comments