Ill Nino - No Murder Chords & Tabs

 

No Murder Chords & Tabs

Ill Nino Chords & Tabs

Version: 1 Type: Tab 0 ratings
1 star 2 stars 3 stars 4 stars 5 stars
comments

No Murder Tab

   
Artist: Ill Niño
Title: No Murder
Album: Revolution / Revolución
Transcribed by: Craig Makepeace
E-mail: staind_the_cycle@hotmail.com

C Tuning

x = mute
. = palm mute

Intro
-------------------
-------------------
-------------------
------------------- x4
-------------------
--3-2-0-2-0-2-0-3--

-------------------
-------------------
-------------------
--3-2-0-2-0-2-0-3-- x8
--3-2-0-2-0-2-0-3--
--3-2-0-2-0-2-0-3--

-------------------
-------------------
-------------------
--3-2-0-2-0-2-0-3-- x8
--3-2-0-2-0-2-0-3--
--3-2-0-2-0-2-0-3--
      . . . . . .

Verse (clean)
------------------
------------------
------------------
--14-12-----------
--------12-15-14--
------------------
*There is probably more to this verse but I cannot hear it

End of Verse
----------------------
----------------------
----------------------
--3-2--3-2--3-2--3-2--
--3-2--3-2--3-2--3-2--
--3-2--3-2--3-2--3-2--
  . .  . .  . .  . .

Pre Chorus
---------------
---------------
---------------
--3-2-0-2-0-2--
--3-2-0-2-0-2--
--3-2-0-2-0-2--
[ Tab from: http://www.guitartabs.cc/tabs/i/ill_nino/no_murder_tab.html ]
Chorus
-----------------------------------------
-----------------------------------------
-------------------------------16-17-----
--7-7-7-7-7-7--10-10-10-10--14-------14--
--7-7-7-7-7-7--10-10-10-10---------------
--7-7-7-7-7-7--10-10-10-10---------------

-------------------------------------
-------------------------------------
---------------------------16-17-----
--0-0-0-0-0-0--3-3-3-3--14-------14--
--0-0-0-0-0-0--3-3-3-3---------------
--0-0-0-0-0-0--3-3-3-3---------------
*I know there are two guitars so Ill just assume they play
the same thing because its hard to hear what gtr 2 does

End of chorus
---------------------------------------------------
---------------------------------------------------
--16-16-16-17-17-17-16-16-16-17-17-17-16-16-17-17--
---------------------------------------------------
---------------------------------------------------
---------------------------------------------------

Outro
-------------------
-------------------
-------------------
--3-2-0-2-0-2-0-3-- x8
--3-2-0-2-0-2-0-3--
--3-2-0-2-0-2-0-3--

End with..
---------------
---------------
---------------
--3-2-0-2-0-2--
--3-2-0-2-0-2--
--3-2-0-2-0-2--

© 2001-2002 Craig Makepeace (staind_the_cycle@hotmail.com)

Comments