Ill Nino - If You Still Hate Me Chords & Tabs

 

If You Still Hate Me Chords & Tabs

Ill Nino Chords & Tabs

Version: 4 Type: Tab 0 ratings
1 star 2 stars 3 stars 4 stars 5 stars
comments

If You Still Hate Me Tab

   
Ill Nino - If You Still Hate Me - Revolution Revolucion

Tabbed by Elvisz (elvisz84@yahoo.com)
Tuning : 6 String Dropped C {Tuned Low to High (C G C F a d)}

Intro:
|---------|
|---------|
|---------|	(Guitar1)
|---------|
|-0-0~~~~-|
|-0-0~~~~-|

|-------------------------------------------|
|-------------------------------------------|
|-77XXXX10999XXXX12101010XXXX14141212121111-|	(Guitar)
|-xxxxxxxxxxxxxxxxxxxxxxxxxxxxxxxxxxxxxxxxx-|   (play this latino style)
|-55XXXX 8777XXXX10 8 8 8XXXX1212101010 9 9-|   (palm mute and clean guitar)
|-------------------------------------------|

Pre-verse:
|-------------------------|
|-------------------------|
|-------------------------|
|-------------------------|
|-10-1010-1010-1010-1-3~~-|
|-10-1010-1010-1010-1-3~~-|

Verse:
|--------|---------------|
|--------|---------------|
|--------|---------------|
|--------|---------------|
|-10-010-|-10-0-00000000-|
|-10-010-|-10-0-00000000-|
                ........   .palm mute

Pre-chorus:
|--------------------|
|--------------------|
|-----555/777/888888-|
|-888-xxxxxxxxxxxxxx-|
|-888-333/555/666666-|
|-888----------------|

Chorus:
|-----------------|-----------------|
|-----------------|-----------------|
|-----------------|-----------------|
|-----------------|-----------------|
|-1-0-00-<5>-1310-|-1-0-00-<5>-0000-|
|-1-0-00-----1310-|-1-0-00-----0000-|

Fill1:
|--------------------|
|--------------------|
|-----555/777/888888-|
|-888-xxxxxxxxxxxxxx-|
|-888-333/555/666666-|
|-888----------------|

Pre-verse:
|-------------------------|
|-------------------------|
|-------------------------|
|-------------------------|
|-10-1010-1010-1010-1-3~~-|
|-10-1010-1010-1010-1-3~~-|
[ Tab from: http://www.guitartabs.cc/tabs/i/ill_nino/if_you_still_hate_me_tab_ver_4.html ]
Verse:
|--------|---------------|
|--------|---------------|
|--------|---------------|
|--------|---------------|
|-10-010-|-10-0-00000000-|
|-10-010-|-10-0-00000000-|
                ........   .palm mute

Fill1:
|--------------------|
|--------------------|
|-----555/777/888888-|
|-888-xxxxxxxxxxxxxx-|
|-888-333/555/666666-|
|-888----------------|

Chorus:
|-----------------|-----------------|
|-----------------|-----------------|
|-----------------|-----------------|
|-----------------|-----------------|
|-1-0-00-<5>-1310-|-1-0-00-<5>-0000-|
|-1-0-00-----1310-|-1-0-00-----0000-|

Fill1:
|--------------------|
|--------------------|
|-----555/777/888888-|
|-888-xxxxxxxxxxxxxx-|
|-888-333/555/666666-|
|-888----------------|

Bridge1:
|---------|
|---------|
|---------|	(Guitar1)
|---------|
|-0-0~~~~-|
|-0-0~~~~-|

|-------------------------------------------|
|-------------------------------------------|
|-77XXXX10999XXXX12101010XXXX14141212121111-|	(Guitar)
|-xxxxxxxxxxxxxxxxxxxxxxxxxxxxxxxxxxxxxxxxx-|   (play this latino style)
|-55XXXX 8777XXXX10 8 8 8XXXX1212101010 9 9-|   (palm mute and clean guitar)
|-------------------------------------------|

Bridge2:
|-----------------|-----------------|
|-----------------|-----------------|
|-----------------|-----------------|
|-----------------|-----------------|
|--------<5>------|--------<5>------|
|-1-0-00-----1310-|-1-0-00-----0000-|

Chorus:
|-----------------|-----------------|
|-----------------|-----------------|
|-----------------|-----------------|
|-----------------|-----------------|
|-1-0-00-<5>-1310-|-1-0-00-<5>-0000-|
|-1-0-00-----1310-|-1-0-00-----0000-|

Outro:
|--------------------|-----|
|--------------------|-----|
|-----555/777/888888-|-----|
|-888-xxxxxxxxxxxxxx-|-----|
|-888-333/555/666666-|-1-0-|
|-888----------------|-1-0-|
Comments