Ill Nino - How Can I Live Chords & Tabs

 

How Can I Live Chords & Tabs

Ill Nino Chords & Tabs

Version: 1 Type: Tab 0 ratings
1 star 2 stars 3 stars 4 stars 5 stars
comments

How Can I Live Tab

Song: How can I live?
Band: Ill nino
Album: confession
Tab by tribalwarrior85

Drop C tuning

intro
D--------------------------------------
A--------------------------------------
F--------------------------------------  
C-3-2-0-2-3-2--2-2--2-3-2-------------- 
G-3-2-0-2-3-2--2-2--2-3-2--------------
C-3-2-0-2-3-2--2-2--2-3-2--------------  

D--------------------------------------
A--------------------------------------
F--------------------------------------
C-3-2-0-2-3-2--2-2-2-2-----------------
G-3-2-0-2-3-2--2-2-2-2-----------------
C-3-2-0-2-3-2--2-2-2-2-----------------
[ Tab from: http://www.guitartabs.cc/tabs/i/ill_nino/how_can_i_live_tab.html ]
Chorus
D--------------------------------------
A--------------------------------------
F--------------------------------------
C-3-2-0-2-2--2-3-2-2-2-----------------
G-3-2-0-2-2--2-3-2-2-2-----------------
C-3-2-0-2-2--2-3-2-2-2-----------------

I just usually play clean with the bass 
during the verse, you can figure out flanger part 
if you want to. Just strum these notes.

D--------------------------------------
A--------------------------------------
F--------------------------------------
C-0-7-3-5------------------------------
G-0-7-3-5------------------------------
C-0-7-3-5------------------------------

that's pretty much the whole song, any questions 
or comments, just email me
Comments