Ill Nino - Have You Ever Felt Chords & Tabs

 

Have You Ever Felt Chords & Tabs

Ill Nino Chords & Tabs

Version: 1 Type: Tab 0 ratings
1 star 2 stars 3 stars 4 stars 5 stars
comments

Have You Ever Felt Tab

Band- Ill Nino
Song- Have You Ever Felt

Intro\Chorus
Rhythm w. dist.
D|----------------------------------------||
A|----------------------------------------||
F|----------------------------------------||
C|-2-2--0-1-0-2---4-3-2-0-1-0-2-----------||
G|-2-2--0-1-0-2---4-3-2-0-1-0-2-----------||
C|-2-2--0-1-0-2---4-3-2-0-1-0-2-----------||

Lead w. dist.

D|---------------------------||
A|---------------------------||
F|---------------------------||
C|----8---8---8--------------||
G|--5---5---5----------------||
C|---------------------------||

Verse 
Rhythm clean
D|---------------------------||
A|---------------------------||
F|-3---4---------------------||
C|-x---x---------------------||
G|-1---2---------------------||
C|---------------------------||

Lead Clean

D|-9-10-9-8-12-11------------||
A|---------------------------||
F|---------------------------||
C|---------------------------||
G|---------------------------||
C|---------------------------||

CHORUS AT TOP***
[ Tab from: http://www.guitartabs.cc/tabs/i/ill_nino/have_you_ever_felt_tab.html ]
Fill
Rhythm(light dist.)
D|---------------||
A|---------------||
F|-3-------------||
C|-x-------------||
G|-1-------------||
C|---------------||

Lead


D|----------------------------------------------------||
A|----------------------------------------------------||
F|----------------------------------------------------||
C|-9-7--9-10-9--12-11-10-
							
													
Comments