Ill Nino - God Save Us Chords & Tabs

 

God Save Us Chords & Tabs

Ill Nino Chords & Tabs

Version: 3 Type: Tab 1 rating
1 star 2 stars 3 stars 4 stars 5 stars
comments

God Save Us Tab

   
god save us----ill nino


drop in d (e-b-g-d-a-d)


intro: heavy distortion


--------------------------------------------------------
--------------------------------------------------------
--------------------------------------------------------
--------------------------------------------------------
--5-5-5-4--5-5-5-4--5-5-5-4--5-5-5-4--5-5-5-4--5-5-5-4-- listen cd to know how many times
--------------------------------------------------------


----------------------------------------------
----------------------------------------------
----------------------------------------------
----------------------------------------------
----------------------------------------------
0-0-0-0-0-1-0-0-0-0-0-1-0-0-0-0-0-1-----------   


yea right ¡¡¡¡


-------------------------------
-------------------------------
-------------------------------
-------------------------------
1-1--1-1-----------------------
1-1--1-1-----------------------   palm muted


headmove part jajajaja

-------------------------------------------------
----------------------------------------------2--
-------------------------------------------------
-------------------------------------------------
0-0-0-0-0-1-0-0-0-0-0-1-0-0-0-0-0-1-0-0-0-0-0----   x 2
0-0-0-0-0-1-0-0-0-0-0-1-0-0-0-0-0-1-0-0-0-0-0----


first verse (god save us...)

--------------------------------------------------
--------------------------------------------------
-----------------------6------------------------6-
--------------------------------------------------
5554--5554--5554--5554---5554--5554--5554--5554---
--------------------------------------------------


 before the !!ohhh yeah ¡¡

---------------------------
---------------------------
---------------------------
---------------------------
--1-1-1-1-1----------------
--1-1-1-1-1----------------


repeat headmove part     
                      

chorus: (this is hard to believe.....)

[ Tab from: http://www.guitartabs.cc/tabs/i/ill_nino/god_save_us_tab_ver_3.html ]
---------------------------------------------------------------------
---------------------------------------------------------------------
---------------------------------------------------------------------
11-11-11-11--7-7-7-7--4-4-4-4--7-7-7-7-------------------------------    that's a eleven (11).
11-11-11-11--7-7-7-7--4-4-4-4--7-7-7-7-------------------------------    play each note many  
11-11-11-11--7-7-7-7--4-4-4-4--7-7-7-7-------------------------------    times band the sequence  
                                                                         2 times

repeat first verse part

repeat before the !!ohhh yeah¡¡

repeat the headmove part


chorus 2 time :

--------------------------------------------------------------------
--------------------------------------------------------------------
-13-13-13-13--9-9-9-9--6-6-6-6--9-9-9-9----------------------------- that is a 13 and the other
-11-11-11-11--7-7-7-7--4-4-4-4--7-7-7-7----------------------------- an 11 repeat each note 8 
-11-11-11-11--7-7-7-7--4-4-4-4--7-7-7-7----------------------------- times and the sequence 4
-11-11-11-11--7-7-7-7--4-4-4-4--7-7-7-7----------------------------- times


soft ballad part clean

----------------------------------------------------------------------------------------
----------------------------------------------------------------------------------------
--------------------------------------------------------------------------7-------------
----13-13^14---13-13^14----9-9^10---9-9^10----6-6^7---6-6^7---9-9^10----9----10-9-------
-11----------11----------7--------7---------4-------4-------7---------7-----------------  x2
----------------------------------------------------------------------------------------
note: ^ means binding

heavy distortion (palm muted)

--------------------------------------
--------------------------------------
--------------------------------------
--------------------------------------
-1-0-0-1-0-0--------------------------
-1-0-0-1-0-0--------------------------


repeat first verse

repeat before !!ohhh yeah¡¡ part

repeat the headmove part


that's the long scream part

--------------------------------------
--------------------------------------
--------------------------------------
-0                              0-1---
-0  (let ring 1/2 second aprox.)0-1---
-0                              0-1---


final part (palm muted)

-------------------------------------------------
-------------------------------------------------
-------------------------------------------------
-0-0-0-0-0-1-0-0-0-0-0-1-0-0-0-0-0-1-0-0-0-0-0-1-
-0-0-0-0-0-1-0-0-0-0-0-1-0-0-0-0-0-1-0-0-0-0-0-1-
-0-0-0-0-0-1-0-0-0-0-0-1-0-0-0-0-0-1-0-0-0-0-0-1-



that's all  is a very good song and im trying to play what comes around now jejejeje

for any questions email me northkast@hotmail.com 
im from antofagasta-chile.  Musicoloco =)
         
                             
Comments