Ill Nino - Fallen Chords & Tabs

 

Fallen Chords & Tabs

Ill Nino Chords & Tabs

Version: 1 Type: Tab 0 ratings
1 star 2 stars 3 stars 4 stars 5 stars
comments

Fallen Tab

Ill Niño - Fallen 
Tabbed by: Carlos Villalpando (villacobain)
Album: Revolution / Revolución
Drop C Tuning

Intro & Verse (Clean, not sure. Play with some variations and improvisation)
D|-----------------------|
A|----3---3---3---1------|
F|-----2---2---2---2-----|
C|--0---0---0---0---0----|
G|-----------------------|
C|-0---------------------|
[ Tab from: http://www.guitartabs.cc/tabs/i/ill_nino/fallen_tab.html ]
Intro (Heavy)
D|----------------------|
A|----------------------|
F|-3--------------------|°
C|-3-1-0~---------------|°
G|-1-1-0~-3h5p0h3h5p0h3-|
C|---1-0~---------------|

Bridge
   (Wah effect, many times)
D|-0--------------------------------------|
A|-3--------------------------------------|
F|-2--------------------------------------|
C|-0--------------------------------------|
G|-0-----------------------00-00-00-00----|
C|-0-----------------------00-00-00-00----|

That's basically it, sorry for the intro & verse parts, 
i couldn't figure them out, but yet i couldn't find any 
tab (ANY) for this song. i think the verse part i tabbed 
works, with some effects. Peace
Comments