Ill Nino - Barely Breathing Chords & Tabs

 

Barely Breathing Chords & Tabs

Ill Nino Chords & Tabs

Version: 1 Type: Tab

Barely Breathing Tab

Band: Ill Nino
Song : Barely Breathing
Tabber : Killswitch_mike (Only On UltimateGuitar.com)
Album : One Nation Underground ( Roadrunner Records 2005)

~ This Is An Acoustic Track In Standard Tuning ~

[ Tab from: http://www.guitartabs.cc/tabs/i/ill_nino/barely_breathing_tab.html ]
E|---------3---------------3--------|
B|-----4---4---4-------4---4---4----|
G|-----5-------5-------3-------5----|
D|---5---5---5---5---5---5---5---5--|      \
A|-3---------------6----------------|       \
E|----------------------------------|        \
                                              Repeat All Of This 4 Times
E|--------------------------------------|  /
B|----------9----------------9----------| /
G|-----8---8---8-------7----7---7-------|/
D|---6--6-6----6--6-6---5-5-5----5-5-5--|
A|-6------------------5-----------------|
E|--------------------------------------|


Finish It Off With This:


E|---------3-----------|
B|-----4---4---4-------|
G|-----5-------5-------|
D|---5---5---5---5-----|
A|-3---------------3---|
E|---------------------|

Any Comments,Questions Or Corrections Email Me Please
Rate please