Il Teatro Degli Orrori - Due Chords & Tabs

 

Due Chords & Tabs

Il Teatro Degli Orrori Chords & Tabs

Version: 1 Type: Bass Tab 0 ratings
1 star 2 stars 3 stars 4 stars 5 stars
comments

Due Bass Tab

x=stop

Riff 1
G----------------------------------------------------------------|
D----------------------------------------------------------------|
A--2-2-2-2-2-2-2-2-2-2-2-2--2-2-x---2-2-2-2-2-2-2-2-2-2--2-2-x---|
D----------------------------------------------------------------|

Chorus
G-----------------------------------------|
D-----------------------------------------|
A-----------------------------------------|
D--5---5---5-5--5-5-5-x---5--5--5--5--4---|

Riff 2
G-------------------------|
D--------9--------9--9-9--|
A-------------------------|
D--7-h9------7-h9---------|

Riff 3
G----------------------------|
D----------------------------|
A--2-----1-----2-----4---5---|
D----------------------------|

Riff 4
G-----------------------------------|
D-----------------------------------|
A--2-x-2-x-2---2x2-x-2-x-2-x-2-x-2x-|
D-----------------------------------|

Riff 5
G------------------------------------------------------------------|
D----------------------------------5-5-5-5-5-5-5-5-----------------|
A--0-0-0-0-0-0-0-0-0-0-0-0-0-0-0-------------------5-5-5-5-7-7-7-7-|
D------------------------------------------------------------------|
[ Tab from: http://www.guitartabs.cc/tabs/i/il_teatro_degli_orrori/due_btab.html ]
G------------------------------------------------------------------|
D------------------------------------------------------------------|
A--3-3-3-3-3-3-3-3-3-3-3-3-3-3-3-3-5-5-5-5-5-5-5-5-2-2-2-2-3-3-3-3-|
D------------------------------------------------------------------|

G------------------------------------------------------------------|
D----------------------------------5-5-5-5-5-5-5-5-----------------|
A--------------------------------------------------5-5-5-5-7-7-7-7-|
D--4-4-4-4-4-4-4-4-4-4-4-4-4-4-4-4---------------------------------|

G------------------------------------------------------------------|
D------------------------------------------------------------------|
A----------------------------------3-3-3-3-3-3-3-3-2-2-2-2-5-5-5-5-|
D--4-4-4-4-4-4-4-4-4-4-4-4-4-4-4-4---------------------------------|

Outro
G--------------------------------------------------------------|
D--------------------------------------------------------------|
A--------------------------------------------------------------|
D--4-4-4-4-4-4-4-4-4-4-4-4-4-4-4-4-4-4-4-4-4-4-4-4-4-4-4-4-4-x-|

Riff 1 x8
Chorus x2
Riff 2 x8
Chorus x2
Riff 3 x4
Riff 2 x8
Chorus x2
Riff 1 x2
Riff 4 x1
Riff 5 x2
Outro  x1
Comments