Ikara Colt - Wanna Be That Way Chords & Tabs

 

Wanna Be That Way Chords & Tabs

Ikara Colt Chords & Tabs

Version: 2 Type: Tab 0 ratings
1 star 2 stars 3 stars 4 stars 5 stars
comments

Wanna Be That Way Tab

   
band: ikara colt
song: wanna be that way
album: modern apprentice

two parts to your guitar riff. Play fast:

E---------------------------------|
B---------------------------------|
G---------------------------------|
D---------------------------------|
A-----6------5------3-----3-------|
E-5-5---5--5---5--5---5-5---5-5-5-|

[ Tab from: http://www.guitartabs.cc/tabs/i/ikara_colt/wanna_be_that_way_tab_ver_2.html ]
E---------------------------------|
B---------------------------------|
G---------------------------------|
D---------------------------------|
A-----6------5------3-----8--8-8--|
E-5-5---5--5---5--5---5-5---------|

repeat.
When the chordage arrives:
A5 F5 A5 Bb5


A5:

E:-
B:-
G:-
D:7
A:7
E:5


F5:

E:-
B:-
G:10
D:10
A:8
E:-


Bb5:

E:-
B:-
G:-
D:8
A:8
E:6
Comments