Ikara Colt - Pop Group Chords & Tabs

 

Pop Group Chords & Tabs

Ikara Colt Chords & Tabs

Version: 1 Type: Tab 0 ratings
1 star 2 stars 3 stars 4 stars 5 stars
comments

Pop Group Tab

band: ikara colt
song: pop group
album: chat and business

Dropped D tuning 
1. Intro/Chorus 
e|------------------------------------------------------------| 
B|------------------------------------------------------------| 
G|-5-4------------5-4-----------------------------------------| 
D|-5-4--0--3-2--0-5-4--0--3-2--0------------------------------| 
A|-3-2--0--3-2--0-3-2--0--3-2--0------------------------------| 
D|------0--3-2--0------0--3-2--0------------------------------| 
[ Tab from: http://www.guitartabs.cc/tabs/i/ikara_colt/pop_group_tab.html ]
2. Verse 
e|------------------------------------------------------------| 
B|------------------------------------------------------------| 
G|------------------------------------------------------------| 
D|-7-6-7-6-7-6------------7-6-7-6-7-6-------------------------| 
A|--------------8--8-0-----------------8--8-0-----------------| 
D|------------------------------------------------------------|x4 

3. After 2nd Chorus 
e|-----------------------------|------------------------------| 
B|-------6-5-5-------6-5-5-----|-5-(let ring for feedback)----| 
G|-----------------------------|------------------------------| 
D|-7-7-7-------7-7-7-----------|------------------------------| 
A|-----------------------------|------------------------------| 
D|--------------------------x4-|------------------------------| 

4. 3rd Verse (it's just D and F, also with the above riff I think) 
e|------------------------------------------------------------| 
B|------------------------------------------------------------| 
G|------------------------------------------------------------| 
D|-0--0-0-3--3------------------------------------------------| 
A|-0--0-0-3--3--etc.------------------------------------------| 
D|-0--0-0-3--3------------------------------------------------| 

Chorus, then end on D
Comments