Ikara Colt - Dont They Know Chords & Tabs

 

Dont They Know Chords & Tabs

Ikara Colt Chords & Tabs

Version: 1 Type: Tab 0 ratings
1 star 2 stars 3 stars 4 stars 5 stars
comments

Dont They Know Tab

   
band: ikara colt
song: dont they know
album: single b-side

intro:

e:-----------------------------------------------------------------|
B:-----------------------------------------------------------------|
G:-----------------------------------------------------------------|
D:-5-5-5-5-5-5-5-5-5-5-5-5-5-5-5-5-2-2-2-2-2-2-2-2-2-2-2-2-2-2-2-2-|
A:-5-5-5-5-5-5-5-5-5-5-5-5-5-5-5-5-2-2-2-2-2-2-2-2-2-2-2-2-2-2-2-2-|
E:-3-3-3-3-3-3-3-3-3-3-3-3-3-3-3-3-0-0-0-0-0-0-0-0-0-0-0-0-0-0-0-0-|

|-------------------------palm----muted-------------------------|

chorus:
[ Tab from: http://www.guitartabs.cc/tabs/i/ikara_colt/dont_they_know_tab.html ]
e:---------------------------------------------------------------------------------|
B:---------------------------------------------------------------------------------|
G:---------------------------------------------------------------------------------|
D:-7-7-7-7-7-7-7-7-7-7-7-7-5-2-2-2-2-2-2-2-2-2-2-2-2-2-2-5-7-7-7-7-7-7-7-7-7-7-7-5-|
A:-7-7-7-7-7-7-7-7-7-7-7-7-5-2-2-2-2-2-2-2-2-2-2-2-2-2-2-5-7-7-7-7-7-7-7-7-7-7-7-5-|
E:-5-5-5-5-5-5-5-5-5-5-5-5-3-0-0-0-0-0-0-0-0-0-0-0-0-0-0-3-5-5-5-5-5-5-5-5-5-5-5-3-|

e:-------------------------------------------------------------------------------|
B:-------------------------------------------------------------------------------|
G:-------------------------------------------------------------------------------|
D:-2-2-2-2-2-2-2-2-2-2-2-2-5-7-7-7-7-7-7-7-7-7-9-9-5-5-5-5-5-5-5-5-5-5-7-7-7-7-7-|
A:-2-2-2-2-2-2-2-2-2-2-2-2-5-7-7-7-7-7-7-7-7-7-9-9-5-5-5-5-5-5-5-5-5-5-7-7-7-7-7-|
E:-0-0-0-0-0-0-0-0-0-0-0-0-3-5-5-5-5-5-5-5-5-5-7-7-3-3-3-3-3-3-3-3-3-3-5-5-5-5-5-|

e:-------------------------------------|
B:-------------------------------------|
G:-------------------------------------|
D:-7-7-7-5-2-2-2-2-2-2-2-2-2-2-2-2-2-2-|
A:-7-7-7-5-2-2-2-2-2-2-2-2-2-2-2-2-2-2-|
E:-5-5-5-3-0-0-0-0-0-0-0-0-0-0-0-0-0-0-|
Comments