Ikara Colt - After This Chords & Tabs

 

After This Chords & Tabs

Ikara Colt Chords & Tabs

Version: 1 Type: Tab 0 ratings
1 star 2 stars 3 stars 4 stars 5 stars
comments

After This Tab

band: ikara colt
song: sink venice
album: chat an business


Intro:
e|--------------------------------------------------------|
B|--------------------------------------------------------|
G|-6-6----8--5----6-6---6---------------------------------|
D|-7-7-5--------5-7-7-5-7---------------------------------|
A|-7-7------------7-7---7---------------------------------|
E|-5-5------------5-5---5---Hold A position throughout----|x2

Verse: Intro x4
[ Tab from: http://www.guitartabs.cc/tabs/i/ikara_colt/after_this_tab.html ]
Pre-Chorus: "Chat and business..."
e|----------------------------------------------------------------------|
B|----------------------------------------------------------------------|
G|-8-8-8-6-6----8-8-8-6-6-----------------------------------------------|
D|-------7-7----------7-7-----------------------------------------------|
A|-------7-7----------7-7-----------------------------------------------|
E|-------5-5----------5-5---etc.----------------------------------------|

Chorus: "I stick to my file"
e|----------------------------------------------------------------------|
B|----------------------------------------------------------------------|
G|-/8-8-8-\5-5-5-5-5-5-/8-8-8-\5-5-5-5-5-5-/8-8-8-etc.--5---------------|
D|------------------------------------------------------x-(let ring)----|
A|------------------------------------------------------3---------------|
E|----------------------------------------------------------------------|

Pre-Chorus
Chorus
Intro
Verse
Pre-Chorus
Chorus

Outro: "After this..."
e|-------------------------------------|
B|-------------------------------------|
G|-------------------------------------|
D|-------------------------------------|
A|-7-7-7---7-7-7-----------------------|
E|-5-5-5---5-5-5----etc.---------------|

Chorus x2
End on F/C
Comments