Ignotus - Awakening Chords & Tabs

 

Awakening Chords & Tabs

Ignotus Chords & Tabs

Version: 2 Type: Bass Tab 0 ratings
1 star 2 stars 3 stars 4 stars 5 stars
comments

Awakening Bass Tab

"The Awakening"
Writen by Ryan (Last name will remain nameless)

H=Hold note   B=Bend   F=Fade out

Riff 1
G-9-7------9-7-----9-7------9-7-----5-3-----5-3----5-3------5-3---------------------------------------|
D-----7-9------7-9------7-9-----7-9------3-5-----3-5-----3-5-------3-5--------------------------------|
A-----------------------------------------------------------------------------------------------------|
E-----------------------------------------------------------------------------------------------------|
[ Tab from: http://www.guitartabs.cc/tabs/i/ignotus/awakening_btab_ver_2.html ]
Riff 2
G--9-7-----------------------------------------------------------------------------------------------|
D-------9-7-5-3-1-0--12HB-12-12-11-9-7------------------7-7--5-5--3-3--------------------------------|
A---------------------------------------------0-3-5-3-0-----------------------5-5-3-3---------2------|
E-------------------------------------------------------3-5H---------------------------3-5-2-1---0H--|

G------------------4-2-0--------------------------------------------------14-18H------14-----------|
D-2-0--------2-3---------3-1------------------------------------12--16-------------------16--4HB---|
A------2-3-5------------------5/6HB-8/9-10/12-12-12-12-14------------------------------------------|
E--------------------------------------------------------------------------------------------------|

Riff 3
G------------------------------4-7-------------------------------------------------------------------|
D-3-3-5-5-------------1-3-5------7-6-3-2-------------------------------------------------------------|
A-----------3-3-5-5-------------------------4-5-5-2-0-------------9-7-5-3----------------------------|
E---------------------------------------------------------3-4-7-12-----------3-0-12-0HF--------------|

Order:
Riff 1, 3 times
Riff 2, 2 times
Riff 1, 2 times
Riff 3, 1 time
Comments