Ignite - Bullets Included No Thought Required Chords & Tabs

 

Bullets Included No Thought Required Chords & Tabs

Ignite Chords & Tabs

Version: 1 Type: Bass Tab 0 ratings
1 star 2 stars 3 stars 4 stars 5 stars
comments

Bullets Included No Thought Required Bass Tab

          Author/Artist: Ignite
          Title: Bullets Included, No Thought Required
          Album: A Place Called Home
          Transcribed by: Alex
          Email: clerks_37@yahoo.com
          
          Standard Tuning
          
          Great song by a great band!  This sounds right to me.
          
          
          --0-0-0-0-1-1-1-1-3-3-3-3-5-5-5-5---------------------------------------------
          -3----------------------------------------------------------------------------
           Intro(play 3 times)                                                          
          
          
          ---0-0-0-0-1-1-1-1-3-3-3-3-5-6-5-6--------------------------------------------
          -3----------------------------------------------------------------------------
                                                                                        
          
          
          -55-33-55-11-3h5--------------------------------------------------------------
          ------------------------------------------------------------------------------
           Verse(Stop when Zoli starts singing)(4x)                                     
          
          
          ---0-0-0-0-1-1-1-1-3-3-3-3-5-5-5-5---0-0-0-0-1-1-1-1-3-3-3-3-5-6-5-6----------
          -3---------------------------------3------------------------------------------
           Chorus(play 2x)                                                              
          
          
          Back to verse                                                               
          
          Back to Chorus                                                               
          
          
          ---7--------------------------------------------------------------------------
          ------------------------------------------------------------------------------
          -5----------------------------------------------------------------------------
          ------------------------------------------------------------------------------
           Mellow part(keep strumming this till the song gets heavy again)              
          
          
          -5-5-5-5-3-3-----5-5-5-5---------5-5-5-5-3-3-----8-8-8-8-6-6-6-6--------------
          -------------3-3---------1-1-3-3-------------3-3------------------------------
           After mellow part(2x)                                                        
          
          
           Back to Chorus                                                               
          
          
           Back to verse(while playing the verse this time, after stopping after the    
           hammer on, keep hitting a D until it goes back)                              
          
          
          -5-5-5-5----------------------------------------------------------------------
          ------------------------------------------------------------------------------
           Outro
[ Tab from: http://www.guitartabs.cc/tabs/i/ignite/bullets_included_no_thought_required_btab.html ]
Comments