Iglesias Enrique - Hero Chords & Tabs

 

Hero Chords & Tabs

Iglesias Enrique Chords & Tabs

Version: 5 Type: Tab 0 ratings
1 star 2 stars 3 stars 4 stars 5 stars
comments

Hero Tab

   
##################################################################################
# This file is the author's own work and represents their interpretation of the  #
# song. You may only use this file for private study, scholarship, or research.  #
##################################################################################


***************************************************************************
Hero
by Enrique Iglesias
***************************************************************************

Transcribed by Soenen Martijn (martijnsoenen@hotmail.com) 16:44 26/01/2002

Note: This is only a good acoustic song when you play it.

Chords used in this song:

EADGBE

G       320033
Cadd9   x32033
Em7x22033
Dsus4   x00233

     G       Em7                

E| -------3------------3-----------3-----------3-------- |
B| ---------3------------3-----------3------------3----- |
G| ----0------(0)---0------(0)---0-----(0)---0------(0)- |
D| ----------------------------------------------------- |
A| ----------------------------2-----------2------------ |
E| --3------------3------------------------------------- |

     Cadd9                     Dsus4


[ Tab from: http://www.guitartabs.cc/tabs/i/iglesias_enrique/hero_tab_ver_5.html ]
E| -------3------------3-----------3------------3------- |
B| ---------3------------3-----------3------------3----- |
G| ----0------(0)---0------(0)---2------(2)---2-----(2)- |
D| -----------------------------------------0----------- |
A| --3------------3------------0------------------------ |
E| ----------------------------------------------------- |


VERSE 1

VERSE 2

CHORUS

VERSE 3


CHORUS:

G  Em7 Cadd9 Dsus4 G  

SOLO: I just made an easy tab, it's not the same as the song. 
      Just slide some notes and try to make it sound right.

E| ------------------------------------------------------------- |
B| --------------------------7---7/8\7-------------------------- |
G| ----------------5/7-7-7-7---7-------7-7/9-7------------------ |
D| --5-5-5-7-7/9-9-----------------------------7/9-----5-------- |
D| ------------------------------------------------5/7---------- |
E| ------------------------------------------------------------- |

BRIDGE

CHORUS x2


***************************************************************************
        More Tabs At:       http://members.fortunecity.com/dmedm/gitaar/guitar.htm
***************************************************************************
Comments