Iglesias Enrique - Hero Chords & Tabs

 

Hero Chords & Tabs

Iglesias Enrique Chords & Tabs

Version: 3 Type: Tab 2 ratings
1 star 2 stars 3 stars 4 stars 5 stars
comments

Hero Tab

   
##################################################################################
# This file is the author's own work and represents their interpretation of the  #
# song. You may only use this file for private study, scholarship, or research.  #
##################################################################################

Title  : Hero
Artist : Enrique Iglesias
Album  : Escape

U can find the lyrics below the tab, listen 2 the CD to sing along

*TAB* 

intro :
  G                     Em7                   Cadd9                 Dsus2      
e|-----3---------3-----|-----3---------3-----|-----3---------3-----|-----3-----|
B|-------3---------3---|-------3---------3---|-------3---------3---|-------3---|
G|---0-----0---0-----0-|---0-----0---0-----0-|---0-----0---0-----0-|---2-----2-|
D|---------------------|---------------------|---------------------|-0---------|
A|---------------------|---------------------|-3---------3---------|-----------|
E|-3---------3---------|-0---------0---------|---------------------|-----------|

verse 1 :
  G                     Em7                   Cadd9                 Dsus2
e|-----3---------3-----|-----3---------3-----|-----3---------3-----|-----3---------3-----|
B|-------3---------3---|-------3---------3---|-------3---------3---|-------3---------3---|
G|---0-----0---0-----0-|---0-----0---0-----0-|---0-----0---0-----0-|---2-----2---2-----2-|
D|---------------------|---------------------|---------------------|-0---------0---------|
A|---------------------|---------------------|-3---------3---------|---------------------|
E|-3---------3---------|-0---------0---------|---------------------|---------------------|

  G                     Em7                   Cadd9       Dsus2       G
e|-----3---------3-----|-----3---------3-----|-----3-----|-----3-----|-----3-------|
B|-------3---------3---|-------3---------3---|-------3---|-------3---|-------3-----|
G|---0-----0---0-----0-|---0-----0---0-----0-|---0-----0-|---2-----2-|---0-----0---|
D|---------------------|---------------------|-----------|-0---------|-------------|
A|---------------------|---------------------|-3---------|-----------|-------------|
E|-3---------3---------|-0---------0---------|-----------|-----------|-3-----------|

verse 2 :
  G                     Em7                   Cadd9                 Dsus2
e|-----3---------3-----|-----3---------3-----|-----3---------3-----|-----3---------3-----|
B|-------3---------3---|-------3---------3---|-------3---------3---|-------3---------3---|
G|---0-----0---0-----0-|---0-----0---0-----0-|---0-----0---0-----0-|---2-----2---2-----2-|
D|---------------------|---------------------|---------------------|-0---------0---------|
A|---------------------|---------------------|-3---------3---------|---------------------|
E|-3---------3---------|-0---------0---------|---------------------|---------------------|
[ Tab from: http://www.guitartabs.cc/tabs/i/iglesias_enrique/hero_tab_ver_3.html ]
  G                     Em7                   Cadd9       Dsus2       G
e|-----3---------3-----|-----3---------3-----|-----3-----|-----3-----|-----3-------|
B|-------3---------3---|-------3---------3---|-------3---|-------3---|-------3-----|
G|---0-----0---0-----0-|---0-----0---0-----0-|---0-----0-|---2-----2-|---0-----0---|
D|---------------------|---------------------|-----------|-0---------|-------------|
A|---------------------|---------------------|-3---------|-----------|-------------|
E|-3---------3---------|-0---------0---------|-----------|-----------|-3-----------|

chorus :
G D C 4x

verse 3 :
  G                     Em7                   Cadd9                 Dsus2
e|-----3---------3-----|-----3---------3-----|-----3---------3-----|-----3---------3-----|
B|-------3---------3---|-------3---------3---|-------3---------3---|-------3---------3---|
G|---0-----0---0-----0-|---0-----0---0-----0-|---0-----0---0-----0-|---2-----2---2-----2-|
D|---------------------|---------------------|---------------------|-0---------0---------|
A|---------------------|---------------------|-3---------3---------|---------------------|
E|-3---------3---------|-0---------0---------|---------------------|---------------------|

  G                     Em7                   Cadd9       Dsus2       G
e|-----3---------3-----|-----3---------3-----|-----3-----|-----3-----|-----3-------|
B|-------3---------3---|-------3---------3---|-------3---|-------3---|-------3-----|
G|---0-----0---0-----0-|---0-----0---0-----0-|---0-----0-|---2-----2-|---0-----0---|
D|---------------------|---------------------|-----------|-0---------|-------------|
A|---------------------|---------------------|-3---------|-----------|-------------|
E|-3---------3---------|-0---------0---------|-----------|-----------|-3-----------|

chorus :
G D C 4x

solo :
e|-----------------------------------------------------------------------------------------|
B|-------------------------------------------------7------------7----7/8h7-----------------|
G|-------------------------------------------7-7-7---7--5/7-7-7---7--7----7--------------7-|
D|------------------------------------------------------5/7-7---------------5/7/5--7/5/7---|
A|-5-5-5-7/9-9--9-9-9-9/7-5--5----------5/7------------------------------------------------|
E|-----------------------------5/7--7/5----------------------------------------------------|

verse 4 :
  Em7                   Cadd9                 Dsus2
e|-----3---------3-----|-----3---------3-----|-----3---------3-----|
B|-------3---------3---|-------3---------3---|-------3---------3---|
G|---0-----0---0-----0-|---0-----0---0-----0-|---2-----2---2-----2-|
D|---------------------|---------------------|-0---------0---------|
A|---------------------|-3---------3---------|---------------------|
E|-0---------0---------|---------------------|---------------------|

  G                     Em7                   Cadd9       Dsus2       G
e|-----3---------3-----|-----3---------3-----|-----3-----|-----3-----|-----3-------|
B|-------3---------3---|-------3---------3---|-------3---|-------3---|-------3-----|
G|---0-----0---0-----0-|---0-----0---0-----0-|---0-----0-|---2-----2-|---0-----0---|
D|---------------------|---------------------|-----------|-0---------|-------------|
A|---------------------|---------------------|-3---------|-----------|-------------|
E|-3---------3---------|-0---------0---------|-----------|-----------|-3-----------|

chorus :
G D C 10x


Any suggestion or correction, feel free to email me at an4k_r4j4@yahoo.com
Tab by Felix Arthur Widjaja
Comments