Iglesias Enrique - Hero Chords & Tabs

 

Hero Chords & Tabs

Iglesias Enrique Chords & Tabs

Version: 2 Type: Chords

Hero Chords

song-hero
artist-enrique 
tabbed by brad


standard tuning

this song is simple i learnt this as soon as i heard it but i still havent figured out the solo bit so if you can help me or you just wanna comment the song my email is yobbos_rule@hotmail.com

there is already heaps of versions of this in here but none of them show you how to play the song so i have added the note thingys underneith

the intro verse and bridge are all the same
e|-----3-------3-------3-------3---|
B|-------3-------3-------3-------3-|
G|---------------------------------|
D|---------------------------------|
A|---2-------2-------2-------2-----|
E|-3-------3-------0-------0-------|

[ Tab from: http://www.guitartabs.cc/tabs/i/iglesias_enrique/hero_crd_ver_2.html ]
e|-----3-------3-------3-------3-2-|
B|-------3-------3-------3-------3-|
G|-------------------2-------2-----|
D|---2-------2-----0-------0-------|
A|-3-------3-----------------------|
E|---------------------------------|


e|-----3-------3-------3-------3---|
B|-------3-------3-------3-------3-|
G|---------------------------------|
D|---------------------------------|
A|---2-------2-------2-------2-----|
E|-3-------3-------0-------0-------|


e|-----3-------3-------3-------3---|
B|-------3-------3-------3-------3-|
G|-----------2---------------------|
D|---2-----0-----------------------|
A|-3-----------------2-------2-----|
E|-----------------3-------3-------|

if that is too hard for you the simple chords are        G Em C D and then G  Em  C D  G

the chorus is just simple chords
Gx4 Dx4 Cx8

that is the song if anyone can do the solo my email is at the top of the screen have fun!