Iglesias Enrique - Escape Chords & Tabs

 

Escape Chords & Tabs

Iglesias Enrique Chords & Tabs

Version: 4 Type: Tab 0 ratings
1 star 2 stars 3 stars 4 stars 5 stars
comments

Escape Tab

   
Enrique Iglesias: Escape
------------------------
(I'm sure everything is 100% correct)



This is the main riff that is played through whole song on verses

   B        E        | G#m      F
E|-------------------|---------------------|
B|-------------------|---------------------|
G|------4---4---4----|------4---4---3------|
D|----4---4---2---2--|----------------4----|
A|-2-----------------|----6---6------------|
E|-------------------|-4----------2--------|


"solo" riff during chorus goes like this:
E|-----------------------------------------|
B|---12---12h11-7-----12-12-11--12/14------|
G|-----------------------------------------|
D|-----------------------------------------|
A|-----------------------------------------|
E|-----------------------------------------|



These are all guitar parts that are included in this song. Which one goes
with which part of the song figure out by yourself.


Mr.(Z)

*******************************************************************************************************

*******************************************************************************************************


Enrique Iglesias - Escape

The Whole song is just B, E, G#m, F#

[ Tab from: http://www.guitartabs.cc/tabs/i/iglesias_enrique/escape_tab_ver_4.html ]
e----------------------------------------------------|
B----------------------------------------------------|
G-------------4---------4---------4------------------|
D--------4---------4---------2---------2-------------|
A---2------------------------------------------------| 
E----------------------------------------------------|


e----------------------------------------------------|
B----------------------------------------------------|
G-------------4----------4---------3-----------------|
D----------------------------------------4-----------|
A--------6---------6---------------------------------| 
E---4-------------------------2----------------------|


Hoj555 - aahhhh Anna :p


*******************************************************************************************************

*******************************************************************************************************


Tabbed by Ajay Anand
for my girl: you can run, you can hide, but you cant escape my love

Wow Enriques getting busy with anna...Wonder what sergei thinks
about that???

here it is

e-----------------------------------------
B-----------------------------------------
G-----4---4---4----------4---4----3-------
D---4---4---2---2------4---4--------4-----
A-2---------------------------------------
E--------------------4-----------2--------



Comments