Iggy Pop And The Stooges - I Wanna Be Your Dog Chords & Tabs

 

I Wanna Be Your Dog Chords & Tabs

Iggy Pop And The Stooges Chords & Tabs

Version: 1 Type: Tab 2 ratings
1 star 2 stars 3 stars 4 stars 5 stars
comments

I Wanna Be Your Dog Tab

   ##########################\
   #Iggy pop and the Stooges# \
   #'I wanna be your dog'   # |
   #tabbed by Isaac Fennell # |
   ########################## |
   \_________________________\|

use lots of destortion, sounds wicked
standard tuning
i dont know if you play the x's or if you play the chord really fast but it sounds awesome either way
theres a slight indication of the timing shown but you'll need to listen to the song to get it right

intro:

--------------
--------------
12---11---9--- then go crazy and it let ring on for a while
12---11---9--- 
10---9----7---
0----0----0---

main riff (verse) :

-------------------------------------------------------------------------
-------------------------------------------------------------------------
-12---12---12-x-x----11---11---11-x-x----9---9---9---9---9---9---9-x-x---
-12---12---12-x-x----11---11---11-x-x----9---9---9---9---9---9---9-x-x---  X 12
-10---10---10-x-x----9----9----9--x-x----7---7---7---7---7---7---7-x-x---
-0----0----0--x-x----0----0----0--x-x----0---0---0---0---0---0---0-x-x---
             
chorus: vocals 'now i wanna be your dog...'
[ Tab from: http://www.guitartabs.cc/tabs/i/iggy_pop_and_the_stooges/i_wanna_be_your_dog_tab.html ]
----------------------------------------------------------------------------
----------------------------------------------------------------------------
-12---12---12---12----11---11---11---11---11---11---11---x---9-----9--9--9--      x-x
-12---12---12---12----11---11---11---11---11---11---11---x---9-----9--9--9-- X 3  x-x  - after 3rd time 
-10---10---10---10----9----9----9----9----9----9----9----x---7-----7--7--7--      x-x
-0----0----0----0-----0----0----0----0----0----0----0----x---0-----0--0--0--      x-x

second riff:

----------------------------------------------------------------------------------------
----------------------------------------------------------------------------------------
-12---12---x---9----9---9-x-x----7---7-x----4----4---4-x-x----5---------x-x----9--------
-12---12---x---9----9---9-x-x----7---7-x----4----4---4-x-x----5-(X 16)--x-x----9-(X 16)- X 1
-10---10---x---7----7---7-x-x----5---5-x----2----2---2-x-x----3---------x-x----7--------
-0----0----x---0----0---0-x-x----0---0-x----0----0---0-x-x----0---------x-x----0--------



intro
main riff
chorus
second riff

main riff
chorus
second riff

main riff with solo

any questions/comments feel free to email me at: dudeinshoes@hotmail.com
Comments