Iggy And The Stooges - Search & Destroy Chords & Tabs

 

Search & Destroy Chords & Tabs

Iggy And The Stooges Chords & Tabs

Version: 1 Type: Tab 0 ratings
1 star 2 stars 3 stars 4 stars 5 stars
comments

Search & Destroy Tab

   
1. Search and Destroy-Iggy and The Stooges

   Guitar-James Williamson

   From the Album: Raw Power


   Most of the Outro on this song is almost impossible to hear
   On the Remixed version of Raw Power (The original version of the  
   album is not available on CD). To Compensate I used Nude and Rude,  
   which contains the original version of this song, to tab most of it.


   Main Riff (Play twice)

e-----------------2--2--2--2--2--0--0--0-------
B---6--6---6--6---2--2--2--2--2--0--0--0-------
G---6--6---6--6---3--3--3--3--3--0--0--0-------
D---6--6---6--6---4--4--4--4--4--2--2--2-------
A---4--4---4--4---4--4--4--4--4--2--2--2-------
E-----------------2--2--2--2--2--0--0--0-------
  
   Lead Interlude 1

e-----------------------------------------------------
B------5--7--7br--5---------5--7--7br--5--7--5--------
G---6----------------6---6----------------------6-----
D-----------------------------------------------------
A-----------------------------------------------------
E-----------------------------------------------------

   Lead Interlude 2

e----------------------------------------9-------------14br--12--14--12-----
B--12b--pr12--pr12--pr12r---9--12--9--12---14--12--14-------------------14--
G---------------------------------------------------------------------------
D---------------------------------------------------------------------------
A---------------------------------------------------------------------------
E---------------------------------------------------------------------------

   Verse Part 1 (Play twice)

e-----------------------------------------------
B------------------x--11--------------x--9------
G--10-10-10-10-10--x--11---8-8-8-8-8--x--9------
D--11-11-11-11-11--x--11---9-9-9-9-9--x--9------
A--11-11-11-11-11--x---9---9-9-9-9-9--x--7------
E---9--9--9--9--9--x-------7-7-7-7-7--x---------

   Verse Part 2

e--------------------------------------
B--------------------------------------
G--6-6--5-5--4-4--3-3--6-6--3--9--8----
D--6-6--6-6--4-4--4-4--7-7--4--9--9----
A--4-4--6-6--2-2--4-4--7-7--4--7--9----
E-------4-4-------2-2--5-5--2-----7----


   Pre-Chorus

e---------------------------------------------------------------------------
B---------------------------------------------------------------------------
G--1/3--3--3--3-3--3-3-3--3--3--3------------6--6--6--6-6--6-6-6--6--6--6---
D--2/4--4--4--4-4--4-4-4--4--4--4---------2--7--7--7--7-7--7-7-7--7--7--7---
A--2/4--4--4--4-4--4-4-4--4--4--4-----2-4----7--7--7--7-7--7-7-7--7--7--7---
E--0/2--2--2--2-2--2-2-2--2--2--2---4--------5--5--5--5-5--5-5-5--5--5--5---



e---------------------------------------------------------------------------
B---------------------------------------------------------------------------
G----------1--1--1--1-1--1-1-1--1--1--1-----------8--8--8--8-8--8-8-8--8--8-
D--------5-2--2--2--2-2--2-2-2--2--2--2-----------8--8--8--8-8--8-8-8--8--8-
A----5-7---2--2--2--2-2--2-2-2--2--2--2------2-4--6--6--6--6-6--6-6-6--6--6-
E--7-------0--0--0--0-0--0-0-0--0--0--0--2-4--------------------------------

   Chorus

e------------4-4------------------------2--2--2--2--2/4--4--4--4--4--4--4---
B--6--6-6-6--4-4--4--4--4---4--4--4--4--2--2--2--2--2/4--4--4--4--4--4--4---
G--6--6-6-6--5-5--4--4--4---4--4--4--4--3--3--3--3--3/5--5--5--5--5--5--5---
D--6--6-6-6--6-6--4--4--4---4--4--4--4--4--4--4--4--4/6--6--6--6--6--6--6---
A--4--4-4-4--6-6--2--2--2---2--2--2--2--4--4--4--4--4/6--6--6--6--6--6--6---
E------------4-4------------------------2--2--2--2--2/4--4--4--4--4--4--4---
[ Tab from: http://www.guitartabs.cc/tabs/i/iggy_and_the_stooges/search_destroy_tab.html ]
   Outro
 
e--------------------------------------------
B--------------------------------------------
G--------------------------------------------
D--------------------------------------------
A---------4--4h7--4-------------------4------
E---/4--7-----------4-4-4h7----4h7--7--------
   2:33

e------------------------------------
B------------------------------------
G------------------------------------
D-------------------4----------------
A---------4--4h7--4---7-4-7--4-------
E---/4--7----------------------7v----
   2:40

e-----------------------------------------------9---12--12p11p9-9--
B-----------------------------------------9--12--------------------
G-------------9------11-------9-------/11--------------------------
D-------9--11---11------11-11---9-9--------------------------------
A---/11------------------------------------------------------------
E------------------------------------------------------------------
   2:46

e-------9-12-----9------------9-9--12p11p9-12p11p9-12p11p9-12p11p9-
B--9-12-------12---12-12---12--------------------------------------
G------------------------------------------------------------------
D------------------------------------------------------------------
A------------------------------------------------------------------
E------------------------------------------------------------------
   2:50 

e--12p11p9-12p11p9-12p11p9-12p11p9-12p11p9----------------------------------
B------------------------------------------12p11p9--------------------------
G--------------------------------------------------12p11p9------------------
D----------------------------------------------------------11-9-7-----------
A-----------------------------------------------------------------9-7-------
E---------------------------------------------------------------------9-7---
   2:58  

e---------------------------------------------------------------------------
B------------------------8b--8br----------8--8b--8--------------------------
G------------------5--7----------7v--7-10-----------10-7-7----7----------9--
D------------------5--7------------------------------------10----11-9-11----
A------------------3--5-----------------------------------------------------
E-7p5h7p5h7p5h7-9-----------------------------------------------------------
   3:02

e--12p11p9-12p11p9-12p11p9-12p11p9-12p11p9-----9----9----9-----9---9----9---
B------------------------------------------12--12b--12b--12pb--12b-12pb-12b-
G---------------------------------------------------------------------------
D---------------------------------------------------------------------------
A---------------------------------------------------------------------------
E---------------------------------------------------------------------------
   3:09

e--9----9---9----9-----9--------9---9----9----9---9----9----9-------9---9---
B--12b------12b----12--12b--12--12b-12b--12b------12b----12-12b-12--12b-12b-
G---------------------------------------------------------------------------
D---------------------------------------------------------------------------
A---------------------------------------------------------------------------
E---------------------------------------------------------------------------
   3:15

e----------------------------
B----------------------------
G--12b----12b----12b-12b-----
D------12-----12-------------
A----------------------------
E----------------------------
   3:21            
                   The End.
                          


Here is a quick guide to how I denote certain actions on the guitar

Slide up = /

Slide Down = \

Bend = b

Pre Bend = pb

Slow Bend = sb

Release = r

Hammer On = h

Pull Off = p 

Vibrato = v

Mute = x

Hold Vibrato = v~~~
Comments