Idol Billy - White Wedding Chords & Tabs

 

White Wedding Chords & Tabs

Idol Billy Chords & Tabs

Version: 3 Type: Tab 3 ratings
1 star 2 stars 3 stars 4 stars 5 stars
comments

White Wedding Tab

   
White Wedding
Billy Idol

Intro:
   E                                 B5
   Trem.-------------------------|  
e|---------------------------------|----------------|----------------|
B|---------------------------------|----------------|----------------|
G|---------------------------------|-4~-------------|-(4)~-----------|
D|---------------------------------|-4~-------------|-(4)~-----------|
A|---------------------------------|-2~-------------|-(2)~-----------|
E|-0-0-0-0-0-0-0-0-0-0-0-0-0-0-0-0-|----------------|----------------|
   
  B5
e|----------------|----------------|
B|----------------|----------------|
G|-(4)~-----------|-(4)~-----------|
D|-(4)~-----------|-(4)~-----------|
A|-(2)~-----------|-(2)~-----------|
E|----------------|----------------|

Main Lick:
   Bm                   E                D                Bm     
e|-2-------|-----2----|-0~-------------|-2~-------------|-2-------|
B|---3-----|---3---3--|-0~-------------|-3~-------------|---3-----|
G|-----4---|-4--------|-1~-------------|-2~-------------|-----4---|
D|-------4-|----------|-2~-------------|-0~-------------|-------4-|
A|---------|----------|----------------|----------------|---------|
E|---------|----------|----------------|----------------|---------|

   Bm         D5               E                B
                                                P.M.----------|
e|-----2----|-5~-------------|-4~-------------|-----------------|
B|---3---3--|-3~-------------|-6~-------------|-----------------|
G|-4--------|-2~-------------|-4~-------------|-----------------|
D|----------|-0~-------------|----------------|-----------------|
A|----------|----------------|----------------|-2-2-2-2-2-2-2-2-|
E|----------|----------------|----------------|-----------------|

   B
   P.M.----------------------------------------------|
e|-----------------|-----------------|-----------------|
B|-----------------|-----------------|-----------------|
G|-----------------|-----------------|-----------------|
D|-----------------|-----------------|-----------------|
A|-2-2-2-2-2-2-2-2-|-2-2-2-2-2-2-2-2-|-2-2-2-2-2-2-2-2-|
E|-----------------|-----------------|-----------------|

Verse:
   B                                  A                 E 
   P.M.----------------------------------------------------------------|
e|-----------------|-----------------|-----------------|-----------------|
B|-----------------|-----------------|-----------------|-----------------|
G|-----------------|-----------------|-----------------|-----------------|
D|-----------------|-----------------|-----------------|-----------------|
A|-2-2-2-2-2-2-2-2-|-2-2-2-2-2-2-2-2-|-0-0-0-0-0-0-0-0-|-----------------|
E|-----------------|-----------------|-----------------|-0-0-0-0-0-0-0-0-|

   B                                   A                 E         
   P.M.----------------------------------------------------------------|
e|-----------------|-----------------|-----------------|-----------------|
B|-----------------|-----------------|-----------------|-----------------|
G|-----------------|-----------------|-----------------|-----------------|
D|-----------------|-----------------|-----------------|-----------------|
A|-2-2-2-2-2-2-2-2-|-2-2-2-2-2-2-2-2-|-0-0-0-0-0-0-0-0-|-----------------|
E|-----------------|-----------------|-----------------|-0-0-0-0-0-0-0-0-|
                                     
Pre-Chorus:
   B                                   A                        
   P.M.----------------------------------------------------------------|
e|-----------------|-----------------|-----------------|-----------------|
B|-----------------|-----------------|-----------------|-----------------|
G|-----------------|-----------------|-----------------|-----------------|
D|-----------------|-----------------|-----------------|-----------------|
A|-2-2-2-2-2-2-2-2-|-2-2-2-2-2-2-2-2-|-0-0-0-0-0-0-0-0-|-0-0-0-0-0-0-0-0-|
E|-----------------|-----------------|-----------------|-----------------|
   B 
   P.M.----------------------------|
e|-----------------|-----------------|
B|-----------------|-----------------|
G|-----------------|-----------------|
D|-----------------|-----------------|
A|-2-2-2-2-2-2-2-2-|-2-2-2-2-2-2-2-2-|
E|-----------------|-----------------|

Chorus:
   A5               E5               B5
e|----------------|----------------|----------------|----------------|
B|----------------|----------------|----------------|----------------|
G|-2~-------------|----------------|-4~-------------|-(4)~-----------|
D|-2~-------------|-2~-------------|-4~-------------|-(4)~-----------|
A|-0~-------------|-2~-------------|-2~-------------|-(2)~-----------|
E|----------------|-0~-------------|----------------|----------------|

   E5               D5              B5
e|----------------|----------------|----------------|----------------|
B|----------------|----------------|----------------|----------------|
G|----------------|-7~-------------|-4~-------------|-(4)~-----------|
D|-2~-------------|-7~-------------|-4~-------------|-(4)~-----------|
A|-2~-------------|-5~-------------|-2~-------------|-(2)~-----------|
E|-0~-------------|----------------|----------------|----------------|

   E5              D5                B5
e|----------------|----------------|----------------|----------------|
B|----------------|----------------|----------------|----------------|
G|----------------|-7~-------------|-4~-------------|-(4)~-----------|
D|-2~-------------|-7~-------------|-4~-------------|-(4)~-----------|
A|-2~-------------|-5~-------------|-2~-------------|-(2)~-----------|
E|-0~-------------|----------------|----------------|----------------|
 
   B
   P.M.----------------------------|
e|-----------------|-----------------|
B|-----------------|-----------------|
G|-----------------|-----------------|
D|-----------------|-----------------|
A|-2-2-2-2-2-2-2-2-|-2-2-2-2-2-2-2-2-|
E|-----------------|-----------------|

Verse:
   B                                  A                 E 
   P.M.----------------------------------------------------------------|
e|-----------------|-----------------|-----------------|-----------------|
B|-----------------|-----------------|-----------------|-----------------|
G|-----------------|-----------------|-----------------|-----------------|
D|-----------------|-----------------|-----------------|-----------------|
A|-2-2-2-2-2-2-2-2-|-2-2-2-2-2-2-2-2-|-0-0-0-0-0-0-0-0-|-----------------|
E|-----------------|-----------------|-----------------|-0-0-0-0-0-0-0-0-|

   B                                   A                 E         
   P.M.----------------------------------------------------------------|
e|-----------------|-----------------|-----------------|-----------------|
B|-----------------|-----------------|-----------------|-----------------|
G|-----------------|-----------------|-----------------|-----------------|
D|-----------------|-----------------|-----------------|-----------------|
A|-2-2-2-2-2-2-2-2-|-2-2-2-2-2-2-2-2-|-0-0-0-0-0-0-0-0-|-----------------|
E|-----------------|-----------------|-----------------|-0-0-0-0-0-0-0-0-|
                                     
Pre-Chorus:
   B                                   A                        
   P.M.----------------------------------------------------------------|
e|-----------------|-----------------|-----------------|-----------------|
B|-----------------|-----------------|-----------------|-----------------|
G|-----------------|-----------------|-----------------|-----------------|
D|-----------------|-----------------|-----------------|-----------------|
A|-2-2-2-2-2-2-2-2-|-2-2-2-2-2-2-2-2-|-0-0-0-0-0-0-0-0-|-0-0-0-0-0-0-0-0-|
E|-----------------|-----------------|-----------------|-----------------|
   B 
   P.M.----------------------------|
e|-----------------|-----------------|
B|-----------------|-----------------|
G|-----------------|-----------------|
D|-----------------|-----------------|
A|-2-2-2-2-2-2-2-2-|-2-2-2-2-2-2-2-2-|
E|-----------------|-----------------|

Chorus:
   A5               E5               B5
e|----------------|----------------|----------------|----------------|
B|----------------|----------------|----------------|----------------|
G|-2~-------------|----------------|-4~-------------|-(4)~-----------|
D|-2~-------------|-2~-------------|-4~-------------|-(4)~-----------|
A|-0~-------------|-2~-------------|-2~-------------|-(2)~-----------|
E|----------------|-0~-------------|----------------|----------------|

   E5               D5              B5
e|----------------|----------------|----------------|----------------|
B|----------------|----------------|----------------|----------------|
G|----------------|-7~-------------|-4~-------------|-(4)~-----------|
D|-2~-------------|-7~-------------|-4~-------------|-(4)~-----------|
A|-2~-------------|-5~-------------|-2~-------------|-(2)~-----------|
E|-0~-------------|----------------|----------------|----------------|
[ Tab from: http://www.guitartabs.cc/tabs/i/idol_billy/white_wedding_tab_ver_3.html ]
   E5              D5                B5
e|----------------|----------------|----------------|----------------|
B|----------------|----------------|----------------|----------------|
G|----------------|-7~-------------|-4~-------------|-(4)~-----------|
D|-2~-------------|-7~-------------|-4~-------------|-(4)~-----------|
A|-2~-------------|-5~-------------|-2~-------------|-(2)~-----------|
E|-0~-------------|----------------|----------------|----------------|
 
   B
   P.M.----------------------------|
e|-----------------|-----------------|
B|-----------------|-----------------|
G|-----------------|-----------------|
D|-----------------|-----------------|
A|-2-2-2-2-2-2-2-2-|-2-2-2-2-2-2-2-2-|
E|-----------------|-----------------|

Main Lick:
   Bm                   E                D
e|-2-------|-----2----|-0~-------------|-2~-------------|
B|---3-----|---3---3--|-0~-------------|-3~-------------|
G|-----4---|-4--------|-1~-------------|-2~-------------|
D|-------4-|----------|-2~-------------|-0~-------------|
A|---------|----------|----------------|----------------|
E|---------|----------|----------------|----------------|

   Bm                   D5               E
e|-2-------|-----2----|-5~-------------|-4~-------------|
B|---3-----|---3---3--|-3~-------------|-6~-------------|
G|-----4---|-4--------|-2~-------------|-4~-------------|
D|-------4-|----------|-0~-------------|----------------|
A|---------|----------|----------------|----------------|
E|---------|----------|----------------|----------------|

   Bm                  
e|-2-------|-----2---|-2-------|-----2---|-2-------|-----2---|
B|---3-----|---3---3-|---3-----|---3---3-|---3-----|---3---3-|
G|-----4---|-4-------|-----4---|-4-------|-----4---|-4-------|
D|-------4-|---------|-------4-|---------|-------4-|---------|
A|---------|---------|---------|---------|---------|---------|
E|---------|---------|---------|---------|---------|---------|

   Bm
e|-2-------|-----------|---------|
B|---3-----|---0-3/5-3-|-2-------|
G|-----4-2-|-1---------|---2---4-|
D|---------|-----------|-----4---|
A|---------|-----------|---------|
E|---------|-----------|---------|

Bridge:
   A5               E5               B5
e|----------------|----------------|-----------------|----------------|
B|----------------|----------------|-----------------|----------------|
G|-2~-------------|----------------|-4~--------------|-(4)~-----------|
D|-2~-------------|-2~-------------|-4~--------------|-(4)~-----------|
A|-0~-------------|-2~-------------|-2~--------------|-(2)~-----------|
E|----------------|-0~-------------|-----------------|----------------|

Verse:
   B                                  A                 E 
   P.M.----------------------------------------------------------------|
e|-----------------|-----------------|-----------------|-----------------|
B|-----------------|-----------------|-----------------|-----------------|
G|-----------------|-----------------|-----------------|-----------------|
D|-----------------|-----------------|-----------------|-----------------|
A|-2-2-2-2-2-2-2-2-|-2-2-2-2-2-2-2-2-|-0-0-0-0-0-0-0-0-|-----------------|
E|-----------------|-----------------|-----------------|-0-0-0-0-0-0-0-0-|

   B                                   A                 E         
   P.M.----------------------------------------------------------------|
e|-----------------|-----------------|-----------------|-----------------|
B|-----------------|-----------------|-----------------|-----------------|
G|-----------------|-----------------|-----------------|-----------------|
D|-----------------|-----------------|-----------------|-----------------|
A|-2-2-2-2-2-2-2-2-|-2-2-2-2-2-2-2-2-|-0-0-0-0-0-0-0-0-|-----------------|
E|-----------------|-----------------|-----------------|-0-0-0-0-0-0-0-0-|
                                     
Pre-Chorus:
   B                                   A                        
   P.M.----------------------------------------------------------------|
e|-----------------|-----------------|-----------------|-----------------|
B|-----------------|-----------------|-----------------|-----------------|
G|-----------------|-----------------|-----------------|-----------------|
D|-----------------|-----------------|-----------------|-----------------|
A|-2-2-2-2-2-2-2-2-|-2-2-2-2-2-2-2-2-|-0-0-0-0-0-0-0-0-|-0-0-0-0-0-0-0-0-|
E|-----------------|-----------------|-----------------|-----------------|
   B 
   P.M.----------------------------|
e|-----------------|-----------------|
B|-----------------|-----------------|
G|-----------------|-----------------|
D|-----------------|-----------------|
A|-2-2-2-2-2-2-2-2-|-2-2-2-2-2-2-2-2-|
E|-----------------|-----------------|

Chorus:
   A5               E5               B5
e|----------------|----------------|----------------|----------------|
B|----------------|----------------|----------------|----------------|
G|-2~-------------|----------------|-4~-------------|-(4)~-----------|
D|-2~-------------|-2~-------------|-4~-------------|-(4)~-----------|
A|-0~-------------|-2~-------------|-2~-------------|-(2)~-----------|
E|----------------|-0~-------------|----------------|----------------|

   E5               D5              B5
e|----------------|----------------|----------------|----------------|
B|----------------|----------------|----------------|----------------|
G|----------------|-7~-------------|-4~-------------|-(4)~-----------|
D|-2~-------------|-7~-------------|-4~-------------|-(4)~-----------|
A|-2~-------------|-5~-------------|-2~-------------|-(2)~-----------|
E|-0~-------------|----------------|----------------|----------------|

   E5              D5                B5
e|----------------|----------------|----------------|----------------|
B|----------------|----------------|----------------|----------------|
G|----------------|-7~-------------|-4~-------------|-(4)~-----------|
D|-2~-------------|-7~-------------|-4~-------------|-(4)~-----------|
A|-2~-------------|-5~-------------|-2~-------------|-(2)~-----------|
E|-0~-------------|----------------|----------------|----------------|
 
   B
   P.M.----------------------------|
e|-----------------|-----------------|
B|-----------------|-----------------|
G|-----------------|-----------------|
D|-----------------|-----------------|
A|-2-2-2-2-2-2-2-2-|-2-2-2-2-2-2-2-2-|
E|-----------------|-----------------|

Bridge:
   B                                   Bm
   P.M.----------------------------|
e|-----------------|-----------------|-2~-------------|-(2)~-----------|
B|-----------------|-----------------|-3~-------------|-(3)~-----------|
G|-----------------|-----------------|-4~-------------|-(4)~-----------|
D|-----------------|-----------------|-4~-------------|-(4)~-----------|
A|-2-2-2-2-2-2-2-2-|-2-2-2-2-2-2-2-2-|-2~-------------|-(2)~-----------|
E|-----------------|-----------------|----------------|----------------|

   B                                   Bm
   P.M.----------------------------|
e|-----------------|-----------------|-2~-------------|-(2)~-----------|
B|-----------------|-----------------|-3~-------------|-(3)~-----------|
G|-----------------|-----------------|-4~-------------|-(4)~-----------|
D|-----------------|-----------------|-4~-------------|-(4)~-----------|
A|-2-2-2-2-2-2-2-2-|-2-2-2-2-2-2-2-2-|-2~-------------|-(2)~-----------|
E|-----------------|-----------------|----------------|----------------|

   B                                   Bm
   P.M.----------------------------|
e|-----------------|-----------------|-2~-------------|-(2)~-----------|
B|-----------------|-----------------|-3~-------------|-(3)~-----------|
G|-----------------|-----------------|-4~-------------|-(4)~-----------|
D|-----------------|-----------------|-4~-------------|-(4)~-----------|
A|-2-2-2-2-2-2-2-2-|-2-2-2-2-2-2-2-2-|-2~-------------|-(2)~-----------|
E|-----------------|-----------------|----------------|----------------|

   Bm                                E5               D5
e|-2~-------------|-(2)~-----------|----------------|----------------|
B|-3~-------------|-(3)~-----------|----------------|----------------|
G|-4~-------------|-(4)~-----------|----------------|-7~-------------|
D|-4~-------------|-(4)~-----------|-2~-------------|-7~-------------|
A|-2~-------------|-(2)~-----------|-2~-------------|-5~-------------|
E|----------------|----------------|-0~-------------|----------------|

   B5                                D5               E5
e|----------------|----------------|----------------|----------------|
B|----------------|----------------|----------------|----------------|
G|-4~-------------|-(4)~-----------|-7~-------------|----------------|
D|-4~-------------|-(4)~-----------|-7~-------------|-2~-------------|
A|-2~-------------|-(2)~-----------|-5~-------------|-2~-------------|
E|----------------|----------------|----------------|-0~-------------|

  B5
e|-----------------|----------------|
B|-----------------|----------------|
G|-4~--------------|-(4)~-----------|
D|-4~--------------|-(4)~-----------|
A|-2~--------------|-(2)~-----------|
E|-----------------|----------------|

Outro:
    E5              D5               B5                    
e|----------------|----------------|----------------|--------------------|
B|----------------|----------------|----------------|--------------------|
G|:---------------|-7~-------------|-4~-------------|-(4)~--------------:|
D|:-2~------------|-7~-------------|-4~-------------|-(4)~--------------:|
A|--2~------------|-5~-------------|-2~-------------|-(2)~---------------|
E|--0~------------|----------------|----------------|--------------------|

Just keep on repeating until fade. And the single chord stikes, you can
throw a few more in to your liking. 

Also heres a riff played throughout the entire song with a few pauses.

e|---------------------|----------------------|
B|---------------------|----------------------|
G|:------7-----7-----7-|-7--6--6--6--6--7----:|
D|:------7-----7-----7-|-7--7--7--7--7--7----:|
A|--x-x-----x-----x----|-------------------x--|
E|---------------------|----------------------|

Comments