Idol Billy - Dancing With Myself Chords & Tabs

 

Dancing With Myself Chords & Tabs

Idol Billy Chords & Tabs

Version: 1 Type: Tab 1 rating
1 star 2 stars 3 stars 4 stars 5 stars
comments

Dancing With Myself Tab

   
Hi, I have just seen the unplugged of Billy Idol and Dancing With Myself
sounded quite great to me so I tabbed it.


Guitar Main Riff:

I think the note on 9 g = e is played more often, just figer it out.

e---------------------------
h---------------7-----------
g--9-9-9-9-8-9----9---------
D---------------------------
A---------------------------
E---------------------------



Just listen to the sound and you get the rythum, it's quite easy!
[ Tab from: http://www.guitartabs.cc/tabs/i/idol_billy/dancing_with_myself_tab.html ]
And the other riff, which is great:

e------------------------------------------------------------
h------------------------------------------------------------
g-------------------------2s4----------------------------2h4b
D---------2-2-2-2-4-4-4-4--------------2-2-2-2-4-4-4-4-------
A-2-2-2-2----------------------2-2-2-2-----------------------
E------------------------------------------------------------

The chords of the song are:

|E|E|B|A|


by Rafael Aspiazu
Comments