Idlewild - You Held The World In Your Arms Chords & Tabs

 

You Held The World In Your Arms Chords & Tabs

Idlewild Chords & Tabs

Version: 6 Type: Tab 0 ratings
1 star 2 stars 3 stars 4 stars 5 stars
comments

You Held The World In Your Arms Tab

   
Idlewild "You Held The World In Your Arms"
Tabbed by: Alex

Seems to work better this way so here it is...
p.s. this is my first proper tab

(Standard Tuning)

Intro 2x:
    C#    Eb  Eb/E/Eb   B       Eb/E/Eb   B        Eb  C#
e|--------------------------------------------------------|
B|--------------------------------------------------------|
G|--6------8---8/9/8----4--------8/9/8----4--------8---6--|
D|--6------8---8/9/8----4--------8/9/8----4--------8---6--|
A|--4------6---8/7/8----2--------8/7/8----2--------6---4--|
E|--X------X---X-X-X----X--------X-X-X----X--------X---X--|

Verse:
chords Eb, C#, B   (A-Bridge)
e|-----6---4---2---(0)-----|
B|-----8---6---4---(2)-----|
G|-----8---6---4---(2)-----|
D|-----8---6---4---(2)-----|
A|-----6---4---2---(0)-----|
E|-----X---X---X---(X)-----|

Eb    C#
Every face
Eb       B           C#
Even the one you saw yesterday
Eb       B         C#
It looks different today
Eb               B             C#
Cos everything's changed since yesterday
Eb       B           C#
In every possible way
Eb          B         C#
Things seem different today
Eb                  A--->
Not like yesterday

Bridge:
[ Tab from: http://www.guitartabs.cc/tabs/i/idlewild/you_held_the_world_in_your_arms_tab_ver_6.html ]
   C#   B   A--->
Is consideration
C#   B      A               C#   B   A---
More like an exception - of consideration?


Chorus: Same as Intro (start with [A] slide if you want)

     (A) C#    Eb  Eb/E/Eb   B       Eb/E/Eb   B        Eb  C#
e|-------------------------------------------------------------|
B|-------------------------------------------------------------|
G|---14/-6------8---8/9/8----4--------8/9/8----4--------8---6--|
D|---14/-6------8---8/9/8----4--------8/9/8----4--------8---6--|  X2
A|---12/-4------6---8/7/8----2--------8/7/8----2--------6---4--|
E|-------X------X---X-X-x----X--------X-X-x----X--------X---X--|

Cos you have the world in your arms tonight
And what if you held the world in your arms?

V2:
When you're secure, do you feel much safer?
As days never change, and it's three years later
It's like your life hasn't changed,
And it's three years late
So how does it feel, to be three years late?
And watching your youth drift away
What seems different, seems different today
And what seems different, seems different today

B:
Is consideration
More like an exception - of consideration?

Ch:
Cos you have the world in your arms tonight
And what if you held the world in your arms?
You have the world in your arms tonight
And what if you held the world in your arms?
(tonight...) (tonight...)

Solo (sort of)

Cos you have the world in your arms tonight
And what if you held the world in your arms?
Cos you have the world in your arms tonight
And what if you held the world in your arms?

Thats it. Enjoy.
Comments