Idlewild - You Held The World In Your Arms Chords & Tabs

 

You Held The World In Your Arms Chords & Tabs

Idlewild Chords & Tabs

Version: 1 Type: Tab 0 ratings
1 star 2 stars 3 stars 4 stars 5 stars
comments

You Held The World In Your Arms Tab

   
#----------------------------------PLEASE NOTE---------------------------------#
#This file is the author's own work and represents their interpretation of the #
#song. You may only use this file for private study, scholarship, or research. #
#------------------------------------------------------------------------------#

Idlewild
You Held The World In Your Arms

Intro:
Guitar 1
e|----------------------------------
B|----------------------------------
G|--6-8-8-9-8---8-8-9-8---8-6--8-6-- X2
D|------------9---------9-----------
A|----------------------------------
E|----------------------------------

Guitar 2
e|-------------------------------
B|-------------------------------
G|--6-----9----------------------
D|--6-----9---------9-------7----
A|--4-----7---------9-------7----
E|------------------7-------5----


Verse
Guitar 1 - ?

Guitar 2
e|------------------
B|------------------
G|--6---------------
D|--6---7---9-------
A|--4---7---9-------
E|------5---7-------


Bridge
Guitar 1
e|--5-4-0-5-4-0-5-4-0--   etc…
B|---------------------
G|---------------------
D|---------------------
A|---------------------
E|---------------------

Guitar 2
e|-------------
B|-------------
G|------6---4--
D|--7---6---4--
A|--7---4---2--
E|--5----------



Chorus:
(Same as Intro)

Solo:
Guitar 1
e|-------------------------
B|-------------------------
G|--6/9-7-6---6/9---8-6---- X2
D|----------9-----9--------
A|-------------------------
E|-------------------------

Guitar 2
Do Chorus/Intro riff.


Song Order
Intro
Verse
Bridge
Chorus
Verse
Bridge
Chorus
Solo
Chorus

Guitar 1 end on:            Guitar 2 end on:
e|-------                   e|-------
B|-------                   B|-------
G|---6---                   G|---6---
D|-------                   D|---6---
A|-------                   A|---4---
E|-------                   E|-------


[ Tab from: http://www.guitartabs.cc/tabs/i/idlewild/you_held_the_world_in_your_arms_tab.html ]
And that’s that.

The only part I don’t know is the verse for guitar 1 – sorry.


*************************************************************************************************************

Song: Theres glory in your story
Artist: Idlewild
Tabbed by: Keith Clark
Mrnicesg@blueyonder.co.uk

G      =320033
D      =xx0232
C      =x32010
em7    =02203x



Tuned down half a step
Riff 1 played over the verse

     G                     D                    C                     D
eb----------3-------------------2-----------------------0------------------2-----------
Bb--------3-----3---3---------3-----3---3-------------1-----1---1--------3-----3---3---
Gb----------------0-------------------2-----------------------0------------------2-----
Db-------------------------0------------------------------------------0----------------
Ab----------------------------------------------3--------------------------------------
Eb---3---------------------------------------------------------------------------------


*************************************************************************************************************

When I argue I see shapes (acoustical arrangement)

Intro
   D                 D?1             D?2          D?3
e-----2-----2---2------3----3---3---------------------------------
b-------------------------------------2---2---2----3---3--3-------
g---2-----2-----------2----2---------2---2--------2---2-----------
d--0-----0-----0-----0----0---0-----0---0---0----0---0--0---------
a-----------------------------------------------------------------
E-----------------------------------------------------------------

Chords: D5 D5 D5 C#5 D5  
F# F# F# F# (all high) C# D5
Comments