Idlewild - You Held The World In Your Arms Chords & Tabs

 

You Held The World In Your Arms Chords & Tabs

Idlewild Chords & Tabs

Version: 2 Type: Bass Tab 0 ratings
1 star 2 stars 3 stars 4 stars 5 stars
comments

You Held The World In Your Arms Bass Tab

Artist - Idlewild
Album - The Remote Part
Song - You Held The World In Your Arms

Proberly the best song Idlewild have written.
The tab sounds correct, please rate it!

Intro

|------------------|---------------1-|-----------------|------------------|
|----------------1-|-2-2-2-2-2-2-2---|-----------------|------------------|
|--4-4-4-4-4-4-4---|-----------------|-2-2-2-2-2-2-2-2-|-0-0-0-0-0-0-0-0--|
|------------------|-----------------|-----------------|------------------|  x2

Verse

|------------------|------------------|
|--------------2---|------------------|
|----4-4-4---4---4-|-0-0-0-0-2-2-2-2--|
|------------------|------------------| x8

Pre-Chorus

|------------------|---------------|-----------------|------------------|
|------------------|---------------|-----------------|------------4-----|
|--0-0-0-0-0-0-0-0-|-4-4-4--2-2-2--|-0-0-0-0-0-0-0-0-|-4-4-4--2-2---2---|
|------------------|---------------|-----------------|------------------| x2

Chorus

|-------------------|---------------1-|-----------------|------------------|
|-----------------1-|-2-2-2-2-2-2-2---|-----------------|------------------|
|---4-4-4-4-4-4-4---|-----------------|-2-2-2-2-2-2-2-2-|-0-0-0-0-0-0-0-0--|
|-------------------|-----------------|-----------------|------------------| x2

Verse
[ Tab from: http://www.guitartabs.cc/tabs/i/idlewild/you_held_the_world_in_your_arms_btab_ver_2.html ]
|------------------|------------------|
|--------------2---|------------------|
|----4-4-4---4---4-|-0-0-0-0-2-2-2-2--|
|------------------|------------------| x8

Pre-Chorus

|------------------|---------------|-----------------|------------------|
|------------------|---------------|-----------------|------------4-----|
|--0-0-0-0-0-0-0-0-|-4-4-4--2-2-2--|-0-0-0-0-0-0-0-0-|-4-4-4--2-2---2---|
|------------------|---------------|-----------------|------------------| x2

Chorus

|-------------------|---------------1-|-----------------|------------------|
|-----------------1-|-2-2-2-2-2-2-2---|-----------------|------------------|
|---4-4-4-4-4-4-4---|-----------------|-2-2-2-2-2-2-2-2-|-0-0-0-0-0-0-0-0--|
|-------------------|-----------------|-----------------|------------------| x2

Long Outro

|------------------|---------------1-|-----------------|-------------------|
|----------------1-|-2-2-2-2-2-2-2---|-----------------|-------------------|
|--4-4-4-4-4-4-4---|-----------------|-2-2-2-2-2-2-2-2-|-0-0-0-0-0-0-0-0---|
|------------------|-----------------|-----------------|-------------------| x9

|-----------------|---------------1-|-----------------|-------|
|---------------1-|-2-2-2-2-2-2-2---|-----------------|-------|
|-4-4-4-4-4-4-4---|-----------------|-2-2-2-2-2-2-2-2-|-0-----|
|-----------------|-----------------|-----------------|-------|
Comments