Idlewild - When I Argue I See Shapes Chords & Tabs

 

When I Argue I See Shapes Chords & Tabs

Idlewild Chords & Tabs

Version: 1 Type: Tab 0 ratings
1 star 2 stars 3 stars 4 stars 5 stars
comments

When I Argue I See Shapes Tab

   
Idlewild - When i argue i see shapes
Tabbed By: Bluntmaster
EMail: cobainsbrains@hotmail.com

Tuning : E A D G B E
[ Tab from: http://www.guitartabs.cc/tabs/i/idlewild/when_i_argue_i_see_shapes_tab.html ]
Chords Fingered/Used :
      E A D G B E
D -   X X 0 2 3 2
Dsus4-X X 0 2 3 3
A  -  X X 2 2 2 X
C5 -  X 3 5 5 X X
D5 -  X 5 7 7 X X
G5 -  3 5 5 X X X
G#5-  4 6 6 X X X
A#5-  6 8 8 X X X
 
Intro:
   D             Dsus4         A             D
|------2-----2-------3-----3--------------------------------|
|----3---3-----3---3---3-----3-----2-----2-------3-----3----|
|--2-------2-----2-------2-------2---2-----2---2---2-----2--|
|------------------------------2-------2-----0-------0------|
|-----------------------------------------------------------|
|-----------------------------------------------------------|
 
Verse:
   C5    D5 G5 G#5 A#5
|-------------------------|
|-------------------------|
|--5-5-5/7----------------|
|--5-5-5/7--5--6---8-8-8--|
|--3-3-3/5--5--6---8-8-8--|
|-----------3--4---6-6-6--|
 
Chorus:
I'm not too sure on the chorus yet, i'll post it later
 
Comments/Alterations to:
Bluntmaster - Cobainsbrains@hotmail.com
Comments