Idlewild - Too Long Awake Chords & Tabs

 

Too Long Awake Chords & Tabs

Idlewild Chords & Tabs

Version: 1 Type: Tab 0 ratings
1 star 2 stars 3 stars 4 stars 5 stars
comments

Too Long Awake Tab

   
Band : Idlewild
Song : Too Long Awake
Album: Warnings Promises
Tabbed By: Calum (afirock74@hotmail.com)

x   - Palm Mute
b   - Bend
b~  - Bend Up Then Down
h   - Hammer-On Directly After Note Before
[ Tab from: http://www.guitartabs.cc/tabs/i/idlewild/too_long_awake_tab.html ]
Intro:
e|-----------------------|
B|----14-----11b--9------|
G|-11---11----------11---|
D|-----------------------|
A|-----------------------|
E|-----------------------|

Verse:
e|----------|
B|----------|
G|-4--3-----|
D|-4--4--4--|
A|-2--1--4--|
E|-------2--|

Chorus/Outro:
F#  C# B G# B
Comments