Idlewild - These Wooden Ideas Chords & Tabs

 

These Wooden Ideas Chords & Tabs

Idlewild Chords & Tabs

Version: 2 Type: Tab 0 ratings
1 star 2 stars 3 stars 4 stars 5 stars
comments

These Wooden Ideas Tab

   
Song: 	These Wooden Ideas
Artist:	Idlewild
Tabbed by graeme

Corrections, comments etc to maxpassed@aol.com

Just one of the many highlights from 100 Broken Windows

Tune down 1/2 a step

Eb Ab Db Gb Bb Eb

Chords:

B   x3555x
A#m x2443x
G#m x02210
F#  355433
C#  x5777x
D#  x7999x

Listen to the recording to get the timing.

Verse  

This may not be exact but it'll give you the general idea

It's a better way to feel....
e|------------------------------------------------|
B|--------5-----------3---------1-----1-----------|
G|------5--5--------4---4-----2--2--2----4b-4-2---|
D|---5------5---4---------4--2----2---------------|
A|-3--3-------2---2---------0---------------------|
E|------------------------------------------------|
[ Tab from: http://www.guitartabs.cc/tabs/i/idlewild/these_wooden_ideas_tab_ver_2.html ]
It's not that one dimensional....
e|-----------------------------------0-0-0-0-0---|
B|---------5---5-------3---3----1----1-1-1-1-1---|
G|-------5---5-------4---4-----2-2---2-2-2-2-2---|
D|---5-------------4----------2---2--2-2-2-2-2---|
A|-3---3---------2---2-------0-----0-0-0-0-0-0---|
E|-----------------------------------------------|


Pre-Chorus

Theres a lot going at this part with the organ kicking in, so
i've just supplied the chords

|B  |G#m|
|A#m|B  |G#m|
|C# |D# |

Chorus

The chorus actually sounds better if you play power chords
instead of the full barre chords.

|B  |F# |C# |G#m|
|B  |F# |C# |C# |


Bridge

It's not 100% but it should do

e|----------------------------------------|
B|----------------------------------------|
G|-------------------------------------6~-|
D|-6-6-6-6-(6)-9-9-9-9-(9)-4-4-4-4-(4)----|
A|----------------------------------------|
E|----------------------------------------|

Outro Chorus

|G#m |B  |F# |C# |
Comments