Idlewild - These Wooden Ideas Chords & Tabs

 

These Wooden Ideas Chords & Tabs

Idlewild Chords & Tabs

Version: 1 Type: Tab 0 ratings
1 star 2 stars 3 stars 4 stars 5 stars
comments

These Wooden Ideas Tab

   
    Idlewild - These wooden ideas. tabbed by greg harrison
 
im not too good at typing out lead parts and i dont know what the lead part
is for this song,so you'll have to work that out for yourself

e|-7-7-7-7-7-7-7--6-6-6-6-6-6-6-6--4-4-4-4-4-4-4-4-4-4-4-4-4-4-4-4---
b|-7-7-7-7-7-7-7--6-6-6-6-6-6-6-6--4-4-4-4-4-4-4-4-4-4-4-4-4-4-4-4---
g|-7-7-7-7-7-7-7--6-6-6-6-6-6-6-6--4-4-4-4-4-4-4-4-4-4-4-4-4-4-4-4--x2
d|-9-9-9-9-9-9-9--8-8-8-8-8-8-8-8--6-6-6-6-6-6-6-6-6-6-6-6-6-6-6-6---
a|-9-9-9-9-9-9-9--8-8-8-8-8-8-8-8--6-6-6-6-6-6-6-6-6-6-6-6-6-6-6-6---
e|-7-7-7-7-7-7-7--6-6-6-6-6-6-6-6--4-4-4-4-4-4-4-4-4-4-4-4-4-4-4-4---

THIS BIT MIGHT BE A BIT WRONG BUT THE CHORDS ARE RIGHT SO U CAN WORK OUT
THE NUMBER OF TIMES TO STRUM THE CHORD

e|-7-7-7-7-7-7-7-7--
b|-7-7-7-7-7-7-7-7--
g|-7-7-7-7-7-7-7-7--
d|-9-9-9-9-9-9-9-9--  you'll have to listen to the track
a|-9-9-9-9-9-9-9-9--  to get this bit right
e|-7-7-7-7-7-7-7-7--
 
I STOPPED AND WAITED FOR PROGRESS

e|-7-7-7-7-7-7-7-7--4-4-4-4-4-4-4-4-4-4-4-4-4-4-4-4--
b|-7-7-7-7-7-7-7-7--4-4-4-4-4-4-4-4-4-4-4-4-4-4-4-4--
g|-7-7-7-7-7-7-7-7--4-4-4-4-4-4-4-4-4-4-4-4-4-4-4-4--
d|-9-9-9-9-9-9-9-9--6-6-6-6-6-6-6-6-6-6-6-6-6-6-6-6--
a|-9-9-9-9-9-9-9-9--6-6-6-6-6-6-6-6-6-6-6-6-6-6-6-6--
e|-7-7-7-7-7-7-7-7--4-4-4-4-4-4-4-4-4-4-4-4-4-4-4-4--

E|-7-7-7-7-7-7-7-7--
B|-7-7-7-7-7-7-7-7--
G|-7-7-7-7-7-7-7-7-- again you'll have to listen to the track
D|-9-9-9-9-9-9-9-9--   to get this bit right
A|-9-9-9-9-9-9-9-9--
E|-7-7-7-7-7-7-7-7--
[ Tab from: http://www.guitartabs.cc/tabs/i/idlewild/these_wooden_ideas_tab.html ]
I STOPPED AND WAITED FOR PROGRESS,i stopped and waited but
e|-7-7-7-7-7-7-7-7--4-4-4-4-4-4-4-4-4-4-4-4-4-4-4-4---
b|-7-7-7-7-7-7-7-7--4-4-4-4-4-4-4-4-4-4-4-4-4-4-4-4---
g|-7-7-7-7-7-7-7-7--4-4-4-4-4-4-4-4-4-4-4-4-4-4-4-4---
d|-9-9-9-9-9-9-9-9--6-6-6-6-6-6-6-6-6-6-6-6-6-6-6-6---
a|-9-9-9-9-9-9-9-9--6-6-6-6-6-6-6-6-6-6-6-6-6-6-6-6---
e|-7-7-7-7-7-7-7-7--4-4-4-4-4-4-4-4-4-4-4-4-4-4-4-4---

  im not willing to accept it all
e|-4-4-4-4-4-4-4-4--6-6-6-6-6-6-6--4---
b|-4-4-4-4-4-4-4-4--6-6-6-6-6-6-6--4---
g|-6-6-6-6-6-6-6-6--8-8-8-8-8-8-8--4---
d|-6-6-6-6-6-6-6-6--8-8-8-8-8-8-8--6---
a|-4-4-4-4-4-4-4-4--6-6-6-6-6-6-6--6---
e|-4-4-4-4-4-4-4-4--6-6-6-6-6-6-6--4---


chrous
e|-4-4-4-4-4-4-4-4--7-7-7-7-7-7-7-7--2-2-2-2-2-2-2-2--4-4-4-4-4-4-4-4--
b|-4-4-4-4-4-4-4-4--7-7-7-7-7-7-7-7--2-2-2-2-2-2-2-2--4-4-4-4-4-4-4-4--
g|-4-4-4-4-4-4-4-4--7-7-7-7-7-7-7-7--2-2-2-2-2-2-2-2--6-6-6-6-6-6-6-6--
d|-6-6-6-6-6-6-6-6--9-9-9-9-9-9-9-9--4-4-4-4-4-4-4-4--6-6-6-6-6-6-6-6--
a|-6-6-6-6-6-6-6-6--9-9-9-9-9-9-9-9--4-4-4-4-4-4-4-4--4-4-4-4-4-4-4-4--
e|-4-4-4-4-4-4-4-4--7-7-7-7-7-7-7-7--2-2-2-2-2-2-2-2--4-4-4-4-4-4-4-4--


near the end there is this bit:

    g#m         B               f#          c#
     i bet you dont know how to spell contradiction

e|-4------------7---------------2-----------4--------
b|-4------------7---------------2-----------4--------
g|-4------------7---------------2-----------6--------
d|-6------------9---------------4-----------6--------
a|-6------------9---------------4-----------4--------
e|-4------------7---------------2-----------4--------

    
    g#m         B               f#      c# 
     i bet you dont know how to sell conviction

e|-4------------7---------------2-------4---------
b|-4------------7---------------2-------4---------
g|-4------------7---------------2-------6---------
d|-6------------9---------------4-------6---------
a|-6------------9---------------4-------4---------
e|-4------------7---------------2-------4---------



listen to the track to find out timing and repeats etc..


  any comments to greg_7485@hotmail.com
Comments