Idlewild - Satan Polaroid Chords & Tabs

 

Satan Polaroid Chords & Tabs

Idlewild Chords & Tabs

Version: 2 Type: Bass Tab 0 ratings
1 star 2 stars 3 stars 4 stars 5 stars
comments

Satan Polaroid Bass Tab

band:idlewild
song:satan polaroid(correction)
album:captain(1998)



for some reason there are 2 different versions the second one appears on i'm 
a message cd2 and other live stuff

satan polaroid-captain version

verse
g--------------------------------------
d--------------------------------------
a---------------0-3--------------------
e---3-3-3-3-3-3-----3-3-3-3-3-3-0-3--
[ Tab from: http://www.guitartabs.cc/tabs/i/idlewild/satan_polaroid_btab_ver_2.html ]
chorus
g-----------------------------------------------------
d-----------------------------------------------------
a-------------0-0-0-0-0-0-3-3-3-3-3-3-5-5-5-5-5-5-----
e-3-3-3-3-3-3-----------------------------------------

satan polaroid-other version

verse
g--------------------------------------
d--------------------------------------
a---------------0-4--------------------
e---4-4-4-4-4-4--------4-4-4-4-4-4-0-4-

chorus
g-----------------------------------------------------
d-----------------------------------------------------
a-------------1-1-1-1-1-1-4-4-4-4-4-4-6-6-6-6-6-6-----
e-4-4-4-4-4-4-----------------------------------------

the "things'd be scary/i look outside" bit play the verse
the outro play the chorus

by paul wilson
wchocolat@aol.com
Comments