Idlewild - Roseability Chords & Tabs

 

Roseability Chords & Tabs

Idlewild Chords & Tabs

Version: 1 Type: Bass Tab 0 ratings
1 star 2 stars 3 stars 4 stars 5 stars
comments

Roseability Bass Tab

band:idlewild
album:100 broken windows(2000)
song:roseability
bassist:bob fairfoul
tabber:paul(idlewild@users.basstabarchive.com

  ro-o-se ability....                                             x2
g----------------------------------------------------------------
d----------------------------------------------------------------
a---------------------------------2-2-2-2-2-2-2-2-2-2-2-2-2-2-1-1 
e-4-4-4-4-4-4-4-4-4-4-4-4-4-5-6-6--------------------------------
[ Tab from: http://www.guitartabs.cc/tabs/i/idlewild/roseability_btab.html ]
chorus
g--------------------------------------------------------------
d--------------------------------------------------------------
a-----------------4-4-4-----------------------------4-4-4------
e-2-2-2-2-2-2-2-2-------4-4-4-0-4-0-4-4-4-4-4-4-4-4-------4-4-4

getrude stein said that's enough
g------------------------------------------------------------
d-----------------8-8-9-9-8-8-6-6----------------------------
a-6-6-6--6-6-6--6-----------------4-4-4--4-4-4--4-4-4--4-4-4-
e------------------------------------------------------------

Comments