Idlewild - Not Just Sometimes But Always Chords & Tabs

 

Not Just Sometimes But Always Chords & Tabs

Idlewild Chords & Tabs

Version: 1 Type: Tab 0 ratings
1 star 2 stars 3 stars 4 stars 5 stars
comments

Not Just Sometimes But Always Tab

Band : Idlewild
Song : Not Just Sometimes But Always
Album: Warnings Promises
Tabbed By: Calum (afirock74@hotmail.com)

Capo on 4th

x   - Palm Mute
b   - Bend
b~  - Bend Up Then Down
h   - Hammer-On Directly After Note Before

Intro Guitar 1:
e|---0--------0--------0---------0----0---|
B|----------------------------------------|
G|-2---2/4--2---2/4--1---1/2--2/4--1----1-|
D|----------------------------------------|
A|----------------------------------------|
E|----------------------------------------|

[ Tab from: http://www.guitartabs.cc/tabs/i/idlewild/not_just_sometimes_but_always_tab.html ]
Verse:
e|-0----------|
B|-0----------|
G|-2---2---1--|
D|-2---4---2--|
A|-0---4---2--|
E|-----2---0--|

Pre-Chorus:
e|-0---0------|
B|-0---0------|
G|-4---2---1--|
D|-4---2---2--|
A|-2---0---2--|
E|---------0--|

Chorus/Outro:
e|-0--0--0-----|
B|-5--0--0-----|
G|-6--4--2--1--|
D|-6--4--2--2--|
A|-4--2--0--2--|
E|----------0--|

Outro
e|--0-2-4-7-2--2---0------|
B|---------------4---2-0--|
G|------------------------|
D|------------------------|
A|------------------------|
E|------------------------|
Comments