Idlewild - Not Just Sometimes But Always Chords & Tabs

 

Not Just Sometimes But Always Chords & Tabs

Idlewild Chords & Tabs

Version: 1 Type: Bass Tab 0 ratings
1 star 2 stars 3 stars 4 stars 5 stars
comments

Not Just Sometimes But Always Bass Tab

   
-------------------------------------------------------------------------------
			     NOT JUST SOMETIMES BUT ALWAYS - Idlewild
-------------------------------------------------------------------------------

Tabbed By : Bassbar
e-mail: Seven_Years_Later@hotmail.com

Tuning: standard

bass comes in at about 35s

Verse:
G|---------------------------------------------------------------------------|
D|---------------------------------------------------------------------------|
A|-4-4-4-4--1-1-1-1----------------------------------------------------------|
E|-------------------4-4-4-4-4-4-4-4-----------------------------------------|

[ Tab from: http://www.guitartabs.cc/tabs/i/idlewild/not_just_sometimes_but_always_btab.html ]
Bridge:
G|---------------------------------------------------------------------------|
D|---------------------------------------------------------------------------|
A|-6-6-6-6--4-4-4-4----------------------------------------------------------|
E|------------------4-4-4-4-4-4-4-4------------------------------------------|


chorus:
G|---------------------------------------------------------------------------|
D|---------------------------------------------------------------------------|
A|----------6-6-6-6--4-4-4-4-------------------------------------------------|
E|-4-4-4-4--------------------4-4-4-4----------------------------------------|


| /  slide up
| \  slide down
| h  hammer-on
| p  pull-off
| ~  vibrato
| +  harmonic
| x  Mute note
===============================================================================
Comments