Idlewild - Live In A Hiding Place Chords & Tabs

 

Live In A Hiding Place Chords & Tabs

Idlewild Chords & Tabs

Version: 3 Type: Tab 0 ratings
1 star 2 stars 3 stars 4 stars 5 stars
comments

Live In A Hiding Place Tab

#----------------------------------PLEASE NOTE---------------------------------#
#This file is the author's own work and represents their interpretation of the #
#song. You may only use this file for private study, scholarship, or research. #
#------------------------------------------------------------------------------#

Idlewild
Live in a Hiding place
Tune guitar half a step down



Listen to the record for the timing, but if you've got this you should know it,
The only thing that's missing is the electric part for the pre-chorus but it's pretty much exactly the same as the
acoustic part except missing the odd note. As well you clever people will realise I've put the lyrics first.

INTRO/VERSE

e:---------------------|-----------------------|
B:---------------------|-----------------------|
G:-------0-----0-------|-------0------0----0--:|
D:-----------5-------5-|-----7------7---------:|
A:----5----3------2----|--5-------5------5-----|
E:--3------------------|-----------------------|


Pre-Chorus

e:---------------------|------------------------|
B:---------------------|------------------------|
G:------0------0----0--|-----0-------0------0--:|
D:----5------7---------|---9-------5-----------:|
A:--3------5------5----|-7----------------------|
E:---------------------|--------3--------3------|

Chorus
Acoustic

e:------------------------|-----------------------|
B:------------------------|-----------------------|
G:------0--------0-----0--|------0-------0-----0-:|
D:------------7-----------|----9-------5---------:|
A:----5----5--------5-----|-7-------3-------3-----|
E:--3---------------------|-----------------------|

Electric
[ Tab from: http://www.guitartabs.cc/tabs/i/idlewild/live_in_a_hiding_place_tab_ver_3.html ]
e:-------------------|--------------------|------------------------------------|
B:---------------h---|-0---1---0----------|----------------0--1--0-------------|
G:--0----2-----0---2-|-----------2---0----|--0---2---0--2-----------0---------:|
D:-------------------|------------------2-|-------------------------------2---:|
A:-------------------|--------------------|------------------------------------|
E:-------------------|--------------------|------------------------------------|


e:-------------------|--------------------|------------------------------------|
B:---------------h---|-0---1---0----------|----------------0--1--0-------------|
G:--0----2-----0---2-|-----------2---0----|--0---2---0--2-----------0---------:|
D:-------------------|------------------2-|-----------------------------------:|
A:-------------------|--------------------|------------------------------------|
E:-------------------|--------------------|------------------------------------|

Post-chorus

e:------------------------|---------------------|--------------------------|
B:------------------------|---------------------|--------------------------|
G:---(7)-------5-------4--|--2----0------2--0---|--2--4--0----------0------|
D:------------------------|---------------------|-----------2-----------2--|
A:------------------------|---------------------|--------------------------|
E:------------------------|---------------------|--------------------------|

e:--------------------------------|
B:--------------------------------|
G:-----0-----2--------2--------0--|
D:---------------0---------0------|
A:--------------------------------|
E:--------------------------------|


Final Chord

e:--x--
B:--0--
G:--0--
D:--0--
A:--2--
E:--3--

Structure

Intro
Verse
Pre-Chorus
Chorus
Intro
Verse
Pre-Chorus
Chorus
Chorus
 

Any corrections or comments to bobthegrinch@hotmail.com
Comments